Oops, an error
Loading. Please wait.

Ophelia tab

version 2
version 2

Whole song

1,218 views 1 this week
no commentswrite comment
1 2 3 4 5
x 3
add to favorites
×
Save as Personal and add changes to this tab that will be seen only by you. Learn more ›
×
You can save this tab as Personal to edit and correct it or add notes. All changes will be seen only by you. Learn more »
launch autoscroll
font size
0
reset
how to read this tab
guitar tuner
edit
Autoscroll
slow
fast
+/-
esc
set tempo
stop
Author
Difficulty
-------------------------------------------------------------------------------
                              OPHELIA - Ambulance LTD
-------------------------------------------------------------------------------
Tabbed by: itsonlycapital
Email: itsonlycapital@gmail.com

Tuning:  down 1 1/2 steps (C# G# E B F# C#)


Intro:

Guitar 1 (electric)
  ||
C#||--------------------|
G#||--------------------|
E ||--------------------|
B ||------------------9-|
F#||-------7--9--8-7----|
C#||--------------------|
  ||
Guitar 2 (acoustic)
  ||
C#||-x-x-x--------------|
G#||-x-x-x-----------12-|
E ||-x-x-x-9-11-10-9----|
B ||-x-x-x--------------|
F#||-x-x-x--------------|
C#||-x-x-x--------------|



Guitar 1
  |
C#|-------------------------|-----------------|-------------------------|-----------------|
G#|-------------------------|-----------------|-------------------------|-----------------|
E |-------------------------|-----------------|-------------------------|-----------------|
B |-----------9-----5-------|-------9---5-----|--------5-----7--9---7s9-|---7-----------9-|
F#|-----------------------7-|---7-----------7-|-----7-------------------|-------7-9-8-7---|
C#|-------------------------|-----------------|-------------------------|-----------------|
  |
Guitars 2 & 3 (electric)
  |
C#|-------------------------|-----------------|-------------------------|-----------------|
G#|-------------------------|-----------------|-------------------------|-----------------|
E |--9--9--9--9--9--9--9--9\|\6-6-6-6-6-6-6-6/|/-9--9--9--9--9--9--9--9\|\6-6-6-6-6-6-6-6/|
B |-10-10-10-10-10-10-10-10\|\7-7-7-7-7-7-7-7/|/10-10-10-10-10-10-10-10\|\7-7-7-7-7-7-7-7/|
F#|-10-10-10-10-10-10-10-10\|\7-7-7-7-7-7-7-7/|/10-10-10-10-10-10-10-10\|\7-7-7-7-7-7-7-7/|
C#|--8--8--8--8--8--8--8--8\|\5-5-5-5-5-5-5-5/|/-8--8--8--8--8--8--8--8\|\5-5-5-5-5-5-5-5/|



Guitar 1
  |
C#|-------------------------|-----------------|-------------------------|-----------------|
G#|-------------------------|-----------------|-------------------------|-----------------|
E |-------------------------|-----------------|-------------------------|-----------------|
B |-----------9-----5-------|-------9---5-----|--------5-----7--9---7s9-|---7---5---------|
F#|-----------------------7-|---7-----------7-|-----7-------------------|-----------7-----|
C#|-------------------------|-----------------|-------------------------|-----------------|
  |
Guitars 2 & 3
  |
C#|-------------------------|-----------------|-------------------------|-----------------|
G#|-------------------------|-----------------|-------------------------|-----------------|
E |--9--9--9--9--9--9--9--9\|\6-6-6-6-6-6-6-6/|/-9--9--9--9--9--9--9--9\|\6-6-6-6-6-6-6-6/|
B |-10-10-10-10-10-10-10-10\|\7-7-7-7-7-7-7-7/|/10-10-10-10-10-10-10-10\|\7-7-7-7-7-7-7-7/|
F#|-10-10-10-10-10-10-10-10\|\7-7-7-7-7-7-7-7/|/10-10-10-10-10-10-10-10\|\7-7-7-7-7-7-7-7/|
C#|--8--8--8--8--8--8--8--8\|\5-5-5-5-5-5-5-5/|/-8--8--8--8--8--8--8--8\|\5-5-5-5-5-5-5-5/|



Guitar 1
  |
C#|-------------------------|
G#|-------------------------|
E |-------------------------|
B |-------------------------|
F#|-5-----------------------|
C#|-------------------------|
  |
Guitars 2 & 3
  |
C#|-----------------|-----------------|-------------------------|-----------------|
G#|-----------------|-----------------|-------------------------|-----------------|
E |-4-4-4-4-4-4-4---|-0-0-0-0-0-0-0-0-|--9--9--9--9--9--9--9--9-|-6-6-6-6-6-6-6-6-|
B |-5-5-5-5-5-5-5---|-2-2-2-2-2-2-2-2-|-10-10-10-10-10-10-10-10-|-7-7-7-7-7-7-7-7-|
F#|-5-5-5-5-5-5-5---|-2-2-2-2-2-2-2-2-|-10-10-10-10-10-10-10-10-|-7-7-7-7-7-7-7-7-|
C#|-3-3-3-3-3-3-3-0-|-0-0-0-0-0-0-0-0-|--8--8--8--8--8--8--8--8-|-5-5-5-5-5-5-5-5-|



Guitars 2 & 3
  |
C#|-----------------|-----------------|-------------------------|-----------------|
G#|-----------------|-----------------|-------------------------|-----------------|
E |-4-4-4-4-4-4-4---|-0-0-0-0-0-0-0-0-|--9--9--9--9--9--9--9--9-|-6-6-6-6-6-6-6-6-|
B |-5-5-5-5-5-5-5---|-2-2-2-2-2-2-2-2-|-10-10-10-10-10-10-10-10-|-7-7-7-7-7-7-7-7-|
F#|-5-5-5-5-5-5-5---|-2-2-2-2-2-2-2-2-|-10-10-10-10-10-10-10-10-|-7-7-7-7-7-7-7-7-|
C#|-3-3-3-3-3-3-3-0-|-0-0-0-0-0-0-0-0-|--8--8--8--8--8--8--8--8-|-5-5-5-5-5-5-5-5-|



Guitar 1
  |
C#|-15--------------|------------------|-15----------------------|-----------------|
G#|-15--------------|------------------|-17----------------------|-----------------|
E |-16--------------|------------------|-17----------------------|-----------------|
B |-----------------|------------------|-------------------------|-----------------|
F#|-----------------|------------------|-------------------------|-----------------|
C#|-----------------|------------------|-------------------------|-----------------|
  |
Guitars 2 & 3
  |
C#|-----------------|------------------|-------------------------|-----------------|
G#|-----------------|------------------|-------------------------|-----------------|
E |-4-4-4-4-4-4-4---|------------------|--9--9--9--9--9--9--9--9-|-6-6-6-6-6-6-6-6-|
B |-5-5-5-5-5-5-5---|---/5-5-4-4-2-2-0-|-10-10-10-10-10-10-10-10-|-7-7-7-7-7-7-7-7-|
F#|-5-5-5-5-5-5-5---|-2----------------|-10-10-10-10-10-10-10-10-|-7-7-7-7-7-7-7-7-|
C#|-3-3-3-3-3-3-3-0-|-0----------------|--8--8--8--8--8--8--8--8-|-5-5-5-5-5-5-5-5-|



Guitar 1
  |
C#|-15--------------|------------------|-15----------------------|-----------------|
G#|-15--------------|------------------|-17----------------------|-----------------|
E |-16--------------|------------------|-17----------------------|-----------------|
B |-----------------|------------------|-------------------------|-----------------|
F#|-----------------|------------------|-------------------------|-----------------|
C#|-----------------|------------------|-------------------------|-----------------|
  |
Guitars 2 & 3
  |
C#|-----------------|------------------|-------------------------|-----------------|
G#|-----------------|------------------|-------------------------|-----------------|
E |-4-4-4-4-4-4-4---|------------------|--9--9--9--9--9--9--9--9-|-----------------|
B |-5-5-5-5-5-5-5---|---/5-5-4-4-2-2-0-|-10-10-10-10-10-10-10-10-|-2-2-2-2-2-2-2-2-|
F#|-5-5-5-5-5-5-5---|-2----------------|-10-10-10-10-10-10-10-10-|-4-4-4-4-3-3-3-3-|
C#|-3-3-3-3-3-3-3-0-|-0----------------|--8--8--8--8--8--8--8--8-|-----------------|



Chorus:

Guitars 2 & 3
  |
C#|-0---------------|-----------------|-----------------|
G#|---0-------------|-----------------|-----------------|
E |-----0-----------|-----------------|-----------------|
B |-------0-2-2-2-2-|-2-2-2---2-2-2---|-2-2-2-2-2-2-2---|
F#|---------4-4-4-4-|-3-3-3-0-2-2-2-0-|-4-4-4-4-3-3-3-0-|
C#|-----------------|-----------0-0---|-----------------|



Guitars 2 & 3
  |
C#|-0---------------|-----------------|---------|
G#|---0-------------|-----------------|---------|
E |-----0-----------|-----------------|---------|
B |-------0-2-2-2-2-|-2-2-2---2-2-2---|-2-2-2---|
F#|---------4-4-4-4-|-3-3-3-0-2-2-2-0-|-0-0-0-0-|
C#|-----------------|-----------0-0---|---------|



Guitar 1
  |
C#|-----------------|-----------------| 
G#|-----------------|-----------------|
E |-----------------|-----------------|
B |---5---7-9---7s9-|---7---5---------|
F#|-----------------|-----------7---5-|
C#|-----------------|-----------------|
  |
Guitars 2 & 3
  |
C#|-----------------|-----------------|
G#|-1-1-1-1-1-1-1---|-2-2-2-2-2-2-2---|
E |-0-0-0-0-0-0-0---|-2-2-2-2-2-2-2---|
B |-2-2-2-2-2-2-2---|-2-2-2-2-2-2-2---|
F#|-3-3-3-3-3-3-3-0-|-0-0-0-0-0-0-0-0-|
C#|-----------------|-----------------|



Guitar 1
  |
C#|-----------------|-----------------|-------------------------|-----------------|
G#|-----------------|-----------------|-------------------------|-----------------|
E |-----------------|-----------------|-------------------------|-----------------|
B |-----------------|-----------------|--------------7--9---7s9-|---7---5---------|
F#|-----------------|-----------------|-------------------------|-----------7---5-|
C#|-----------------|-----------------|-------------------------|-----------------|
  |
Guitars 2 & 3
  |
C#|-----------------|-----------------|-------------------------|-----------------|
G#|-----------------|-----------------|-------------------------|-----------------|
E |-4---4-4-4-4-4---|-----------------|--9--9--9--9--9--9--9--9-|-6-6-6-6-6-6-6-6-|
B |-5---5-5-5-5-5---|---5-5-4-4-2-2-0-|-10-10-10-10-10-10-10-10-|-7-7-7-7-7-7-7-7-|
F#|-5---5-5-5-5-5---|-2---------------|-10-10-10-10-10-10-10-10-|-7-7-7-7-7-7-7-7-|
C#|-3---3-3-3-3-3-0-|-0---------------|--8--8--8--8--8--8--8--8-|-5-5-5-5-5-5-5-5-|



Guitar 1
  |
C#|-----------------|-------7---------|-------------------------|-----------------|
G#|-----------------|-----------5-----|-------------------------|-----------------|
E |-----------------|-----------------|-------------------------|-----------------|
B |-----------------|-----------------|--------5-----7--9---7s9-|---7---5-------9-|
F#|-----------------|-----------------|----/7-------------------|-----------7-----|
C#|-----------------|-----------------|-------------------------|-----------------|
  |
Guitars 2 & 3
  |
C#|-----------------|-----------------|-------------------------|-----------------|
G#|-----------------|-----------------|-------------------------|-----------------|
E |-4---4-4-4-4-4---|-----------------|--9--9--9--9--9--9--9--9-|-6-6-6-6-6-6-6-6-|
B |-5---5-5-5-5-5---|---5-5-4-4-2-2-0-|-10-10-10-10-10-10-10-10-|-7-7-7-7-7-7-7-7-|
F#|-5---5-5-5-5-5---|-2---------------|-10-10-10-10-10-10-10-10-|-7-7-7-7-7-7-7-7-|
C#|-3---3-3-3-3-3-0-|-0---------------|--8--8--8--8--8--8--8--8-|-5-5-5-5-5-5-5-5-|



Bridge/Outro:

Guitar 1
  |
C#|------------------------|-----------------|------------------------|-----------------|
G#|------------------------|-----------------|------------------------|-----------------|
E |------------------------|-----------------|------------------------|-----------------|
B |--------------5---------|-------9---5-----|--------5-----7--9--7s9-|---7---5---------|
F#|-----------------7------|---7-----------7-|----/7------------------|-----------7-----|
C#|------------------------|-----------------|------------------------|-----------------|
  |
Guitars 2 & 3
  |
C#|------------------------|-----------------|------------------------|-----------------|
G#|------------------------|-----------------|------------------------|-----------------|
E |------------------------|-----------------|------------------------|-----------------|
B |-10-10-10-10-10-10-10-7-|---7-7-7-7-7-7-7-|-10-10-10-10-10-10-10-7-|---7-7-7-7-7-7-7-|
F#|-10-10-10-10-10-10-10-7-|---7-7-7-7-7-7-7-|-10-10-10-10-10-10-10-7-|---7-7-7-7-7-7-7-|
C#|--8--8--8--8--8--8--8-5-|---5-5-5-5-5-5-5-|--8--8--8--8--8--8--8-5-|---5-5-5-5-5-5-5-|



End riff 1
  |
C#|----------------------7-|---------------7-|----------------------7-|---------------7-|
G#|----------8-------------|-------8---------|----------8-------------|-------8---------|
E |-----7s9---------7s9----|---7s9-----7s9---|-----7s9---------7s9----|---7s9-----7s9---|
B |------------------------|-----------------|------------------------|-----------------|
F#|------------------------|-----------------|------------------------|-----------------|
C#|------------------------|-----------------|------------------------|-----------------|
  |
Guitars 2 & 3
  |
C#|------------------------|-----------------|------------------------|-----------------|
G#|------------------------|-----------------|------------------------|-----------------|
E |------------------------|-----------------|------------------------|-----------------|
B |-10-10-10-10-10-10-10-7-|---7-7-7-7-7-7-7-|-10-10-10-10-10-10-10-7-|---7-7-7-7-7-7-7-|
F#|-10-10-10-10-10-10-10-7-|---7-7-7-7-7-7-7-|-10-10-10-10-10-10-10-7-|---7-7-7-7-7-7-7-|
C#|--8--8--8--8--8--8--8-5-|---5-5-5-5-5-5-5-|--8--8--8--8--8--8--8-5-|---5-5-5-5-5-5-5-|



End riff 1
  |
C#|----------------------7-|---------------7-|----------------------7-|---------------7-|
G#|----------8-------------|-------8---------|----------8-------------|-------8---------|
E |-----7s9---------7s9----|---7s9-----7s9---|-----7s9---------7s9----|---7s9-----7s9---|
B |------------------------|-----------------|------------------------|-----------------|
F#|------------------------|-----------------|------------------------|-----------------|
C#|------------------------|-----------------|------------------------|-----------------|
  |
Guitars 2 & 3
  |
C#|------------------------|-----------------|------------------------|-----------------|
G#|------------------------|-----------------|------------------------|-----------------|
E |------------------------|-----------------|------------------------|-----------------|
B |-10-10-10-10-10-10-10-7-|---7-7-7-7-7-7-7-|-10-10-10-10-10-10-10-7-|---7-7-7-7-7-7-7-|
F#|-10-10-10-10-10-10-10-7-|---7-7-7-7-7-7-7-|-10-10-10-10-10-10-10-7-|---7-7-7-7-7-7-7-|
C#|--8--8--8--8--8-10-12-5-|---5-5-5-5-5-5-5-|--8--8--8--8--8--8--8-5-|---5-5-5-5-5-5-5-|



End riff 1
  |
C#|----------------------7-|---------------7-|----------------------7-|---------------7-|
G#|----------8-------------|-------8---------|----------8-------------|-------8---------|
E |-----7s9---------7s9----|---7s9-----7s9---|-----7s9---------7s9----|---7s9-----7s9---|
B |------------------------|-----------------|------------------------|-----------------|
F#|------------------------|-----------------|------------------------|-----------------|
C#|------------------------|-----------------|------------------------|-----------------|
  |
End riff 2
  |
C#|-----------0------------|-----------0-----|-----------0------------|-------12--------|
G#|----12--------10-12-/12-|---10------------|----12--------10-12-/12-|---10--12--------|
E |------------------------|-------12--------|------------------------|-----------------|
B |-------12---------------|-----------------|-------12---------------|-----------------|
F#|------------------------|-----------------|------------------------|-----------------|
C#|------------------------|-----------------|------------------------|-----------------|
  |
Guitars 2 & 3
  |
C#|------------------------|-----------------|------------------------|-----------------|
G#|------------------------|-----------------|------------------------|-----------------|
E |------------------------|-----------------|------------------------|-----------------|
B |-10-10-10-10-10-10-10-7-|---7-7-7-7-7-7-7-|-10-10-10-10-10-10-10-7-|---7-7-7-7-7-7-7-|
F#|-10-10-10-10-10-10-10-7-|---7-7-7-7-7-7-7-|-10-10-10-10-10-10-10-7-|---7-7-7-7-7-7-7-|
C#|--8--8--8--8--8-10-12-5-|---5-5-5-5-5-5-5-|--8--8--8--8--8--8--8-5-|---5-5-5-5-5-5-5-|



End riff 1
  |
C#|----------0-------------|------------------------||
G#|----------------------8-|------------------------||
E |-----7s9---------7s9----|------------------------||
B |------------------------|------------------------||
F#|------------------------|------------------------||
C#|------------------------|------------------------||
  |
End riff 2
  |
C#|-----------0------------|------------------------||
G#|----12--------10-12--12-|------------------------||
E |---------------------12-|------------------------||
B |-------12---------------|------------------------||
F#|------------------------|------------------------||
C#|------------------------|------------------------||
  |
Guitars 2 & 3
  |
C#|------------------------|------------------------||
G#|------------------------|------------------------||
E |------------------------|------------------------||
B |-10-10-10-10-10-10-10-7-|------------------------||
F#|-10-10-10-10-10-10-10-7-|------------------------||
C#|--8--8--8--8--8--8--8-5-|------------------------||



| /  slide up
| \  slide down
| h  hammer-on
| p  pull-off
| ~  vibrato
| +  harmonic
| x  Mute note
===============================================================================
Suggest correction
Creating personal tab
Creating personal tab
You can edit any tab online and save it as your Personal.

You can edit, replace or remove any tab part or add personal notes – all changes will be seen only by you.

Personal tabs can be accessed anytime from any device, even offline.
Learn more »
Give kudos to tab author, rate the tab!
1 2 3 4 5
comments
print report bad tab
guest
You may want to rate the tab now too:
select rating
Wanna post a correction for this tab? Suggest correction