Oops, an error
Loading. Please wait.

The Price Of Reality tab

by Amen
329 views 1 this week
1 commentread comment
1 2 3 4 5
x 4
add to favorites
×
Save as Personal and add changes to this tab that will be seen only by you. Learn more ›
×
You can save this tab as Personal to edit and correct it or add notes. All changes will be seen only by you. Learn more »
launch autoscroll
font size
0
reset
how to read this tab
guitar tuner
edit
Autoscroll
slow
fast
+/-
esc
set tempo
stop
Amen - The Price Of Reality

Dropped D Tuning (D A D G B e)

KEY:
pm. = palm muting
p   = pull off

Begins with feedback

INTRO LEAD:
e|----|
B|-10-| Played in verses also. Effected, and I think it's a phaser.
G|-12-|
D|----|
A|----|
D|----|

INTRO FILL:
e|-----------|
B|-----------|
G|-----------|
D|-----------|
A|-0-1p0-1p0-|
D|-0-1p0-1p0-|

Verse is bass and intro lead bass may go like this:
G|-----------------------------------------------------------------|
D|-----------------------------------------------------------------|
A|-----------------------------------------------------------------|
D|-3-3-3-3-3-3-3-3-1-1-1-1-1-1-1-1-0-0-0-0-0-0-0-0-0-0-0-0-0-0-0-0-|

PRE-CHORUS:
e|---------------------------------------------------------|
B|---------------------------------------------------------|
G|---------------------------------------------------------|
D|---------------------------------------------------------|
A|-0-0-0-0-0-0-0-0-3-3-3-3-3-3-3-3-5-5-5-5-5-5-5-5-1-1-1-1-1-1-1-1-|
D|-0-0-0-0-0-0-0-0-3-3-3-3-3-3-3-3-5-5-5-5-5-5-5-5-1-1-1-1-1-1-1-1-|
pm . . . . . . . . . . . . . . . . . . . . . . . . . . . . . . . .

PRE-CHORUS (ends in pick scrapes)
CHORUS
e|---------------------------------------------------------|
B|---------------------------------------------------------|
G|---------------------------------------------------------|
D|-0-0-0-0-0-0-0-0-3-3-3-3-3-3-3-3-5-5-5-5-5-5-5-5-1-1-1-1-1-1-1-1-|
A|-0-0-0-0-0-0-0-0-3-3-3-3-3-3-3-3-5-5-5-5-5-5-5-5-1-1-1-1-1-1-1-1-|
D|-0-0-0-0-0-0-0-0-3-3-3-3-3-3-3-3-5-5-5-5-5-5-5-5-1-1-1-1-1-1-1-1-|

OUTRO:
e|-------------------------------|
B|-------------------------------|
G|-------------------------------|
D|-------------------------------|
A|-1p0-0-0-0-0-3--1p0-0-0-0-0-3--|
D|-1p0-0-0-0-0-3--1p0-0-0-0-0-3--|
pm     . . . .        . . . .

This was done by someone i know called Mark, i am very very very grateful, you should 
be to cos its really quite correct.

            
            
Suggest correction
Creating personal tab
Creating personal tab
You can edit any tab online and save it as your Personal.

You can edit, replace or remove any tab part or add personal notes – all changes will be seen only by you.

Personal tabs can be accessed anytime from any device, even offline.
Learn more »
comments
print report bad tab
1 comment total.
0 reply
cincit2 116 Nov 12, 2006 03:27 AM

live, the guitar chorus and pre chorus is...

e--------------------------------------------------------
b--------------------------------------------------------
g--------------------------------------------------------
d--------------------------------------------------------
a--------------------------------------------------------
d--0-0-0-0-0-0-0-0-3-3-3-3-3-3-5-5-5-5-5-5-1-1-1-1-1-1---

e-----------------------------------------------------
b-----------------------------------------------------
g-----------------------------------------------------
d-----------------------------------------------------
a-----------------------------------------------------
d--0-0-0-0-0-0-0-3-3-3-3-3-3-3-1-1-1-1-1-1-1-1-1-1-1--

e--------------------------------------------------------
b--------------------------------------------------------
g--------------------------------------------------------
d--------------------------------------------------------
a--0-0-0-0-0-0-0-0-3-3-3-3-3-3-5-5-5-5-5-5-1-1-1-1-1-1---
d--0-0-0-0-0-0-0-0-3-3-3-3-3-3-5-5-5-5-5-5-1-1-1-1-1-1---

e-----------------------------------------------------
b-----------------------------------------------------
g-----------------------------------------------------
d-----------------------------------------------------
a--0-0-0-0-0-0-0-3-3-3-3-3-3-3-1-1-1-1-1-1-1-1-1-1-1--
d--0-0-0-0-0-0-0-3-3-3-3-3-3-3-1-1-1-1-1-1-1-1-1-1-1--

and i think the albums the same

guest
Wanna post a correction for this tab? Suggest correction