Oops, an error
Loading. Please wait.

Bend Me Shape Me Bass Tab

version 2
version 2

Whole song

Interactive

631 views 375 this week
no commentswrite comment
1 2 3 4 5
3 more votes to show rating
add to favorites
launch autoscroll
font size
0
reset
guitar tuner
Autoscroll
slow
fast
+/-
esc
set tempo
stop
Help us to improve Ultimate-Guitar.com Take our survey!
×
Author
Bend Me Shape Me
This version by UK band Amen Corner reached #3 in UK 1968.
Bass performance Clive Taylor. Tab by bass50611.  Great Sixties
Dance song that for me should have been a UK number 1. 
As per original I think.

Intro:
G|------------------------------------------------------------------|
D|-2--2-----------------------------2--2----------------------------|
A|------4--4---2--2-4-0--0--0------------4--4---2--2-4-0--0--0------|
E|----------------------------2--2-----------------------------2--2-|

Verse:                                                 (Play This x2)
G|------------------------------------------------------------------|
D|-2--2-----------------------------2--2----------------------------|
A|------4--4---2--2-4-0--0--0------------4--4---2--2-4-0--0--0------|
E|----------------------------2--2-----------------------------2--2-|

Pre- Chorus
G|---------------------------------------------------------------|
D|-6-6-6-6----7-7----7-7----9-9----9-9---------------------------|
A|----6-----7------7------9------9-----7-7--7--7-7---5-5--5--5-5-|
E|---------------------------------------------------------------|

G|----------------------------|
D|----------------------------|
A|--4-4--4--4-4---3-3--3--2-2-|
E|----------------------------|

Chorus 1:                                  (Play This x2)
G|-------2-2------4-4--------------2-2---------------|
D|--2--------4-2---4-4-2--2---2--------4-2---0--0--2-|
A|---2-4----------------2------2-4-------------------|
E|---------------------------------------------------|

Interlude:
G|------------------------------------------------------------------|
D|-2--2-----------------------------2--2----------------------------|
A|------4--4---2--2-4-0--0--0------------4--4---2--2-4-0--0--0------|
E|----------------------------2--2-----------------------------2--2-|

Verse:                                                 (Play This x2)
G|------------------------------------------------------------------|
D|-2--2-----------------------------2--2----------------------------|
A|------4--4---2--2-4-0--0--0------------4--4---2--2-4-0--0--0------|
E|----------------------------2--2-----------------------------2--2-|

Pre- Chorus
G|---------------------------------------------------------------|
D|-6-6-6-6----7-7----7-7----9-9----9-9---------------------------|
A|----6-----7------7------9------9-----7-7--7--7-7---5-5--5--5-5-|
E|---------------------------------------------------------------|

G|----------------------------|
D|----------------------------|
A|--4-4--4--4-4---3-3--3--2-2-|
E|----------------------------|

Chorus 2:
G|-------2-2------4-4--------------2-2---------------|
D|--2--------4-2---4-4-2--2---2--------4-2---0--0--2-|
A|---2-4----------------2------2-4-------------------|
E|---------------------------------------------------|

                                                             (Break)
G|-------2-2------4-4--------------2-2---------------------------|
D|--2--------4-2---4-4-2--2---2--------4-2---0--0--2---2--0------|
A|---2-4----------------2------2-4--------------------------2----|
E|-------------------------------------------------------------0-|

Interlude:
G|------------------------------------------------------------------|
D|-2--2-----------------------------2--2----------------------------|
A|------4--4---2--2-4-0--0--0------------4--4---2--2-4-0--0--0------|
E|----------------------------2--2-----------------------------2--2-|

Verse:                                                 (Play This x2)
G|------------------------------------------------------------------|
D|-2--2-----------------------------2--2----------------------------|
A|------4--4---2--2-4-0--0--0------------4--4---2--2-4-0--0--0------|
E|----------------------------2--2-----------------------------2--2-|

Pre- Chorus
G|---------------------------------------------------------------|
D|-6-6-6-6----7-7----7-7----9-9----9-9---------------------------|
A|----6-----7------7------9------9-----7-7--7--7-7---5-5--5--5-5-|
E|---------------------------------------------------------------|

G|----------------------------|
D|----------------------------|
A|--4-4--4--4-4---3-3--3--2-2-|
E|----------------------------|

Outro Chorus:                                (Repeat To Fade/End)
G|-------2-2------4-4--------------2-2---------------|
D|--2--------4-2---4-4-2--2---2--------4-2---0--0--2-|
A|---2-4----------------2------2-4-------------------|
E|---------------------------------------------------|




You're the only woman I need and baby you know it
You can make this beggar a king, a clown or a poet
'Cause I got nothing to hi-ide, just a piece of li... Ine

Bend me, shape me, anyway you want me
Long as you love me, it's all right
Bend me, shape me, anyway you want me
You got the power to turn on the light

Everybody tells me I'm wrong, to want you so badly
But there's a force driving me on, I'll follow it gladly

So let them laugh, I don't care-are
All I want is you by my si... Ide

Bend me, shape me, anyway you want me
Long as you love me, it's all right
Bend me, shape me anyway you want me
But you got the power to turn on the light

Everybody tells me I'm wrong, to want you so badly
But there's a force driving me on, I'll follow it gladly

So let them laugh, I don't care-are
All I want is you by my si... Ide

Bend me, shape me, anyway you want me
Long as you love me, it's all right

Audience:
Bend me, shape me anyway you want me
You got the power to turn on the light
Hey! Louder
Bend me, shape me anyway you want me
Long as you love me       (fade)
Suggest correction
Give kudos to tab author, rate the tab!
1 2 3 4 5
comments
print report bad tab
guest
You may want to rate the tab now too:
select rating
Wanna post a correction for this tab? Suggest correction