Oops, an error
Loading. Please wait.
We have Chord Pro version of A Horse With No Name.
It's the closest thing you can get to the original song and it has interactive parts. Check out the tab »
×
by America
93,042 views 81 this week
no commentswrite comment
1 2 3 4 5
x 14
add to favorites
×
Save as Personal and add changes to this tab that will be seen only by you. Learn more ›
×
You can save this tab as Personal to edit and correct it or add notes. All changes will be seen only by you. Learn more »
launch autoscroll
font size
0
reset
how to read this tab
guitar tuner
backing track
0:00
0:00
edit
Autoscroll
slow
fast
+/-
esc
set tempo
stop
Author
[Intro]

e|-------0--0--------0--0------0----0--0---0------0--0--|
B|-------0--0--------0--0------0----0--0---0--0---0--0--|
G|-0-----0--0--------0--0------2----2--2---0--0---0--0--|
D|-5-----5--5--5-----5------0--0--x----0------5---5-----|
A|-7-----7--7--7--7--7------x--x--x----x------7---7-----|
E|-0-----0--0--0--0--0------2--2--x----0------0---0-----|

e|----0-----0-----------0-----0---0-----0-----0-----------|
B|----0-----0--0--0-----0--0--0---0-----0-----0--0--0-----|
G|-2--2-----2--2--2--2--0--0--0---0--2--2-----2--2--2--2--|
D|-0--0--x--0--0--0--0-----5--5------0--0--x--0--0--0--0--|
A|-x--x--x-----x-----x-----7--7------x--x--x-----x-----x--|
E|-2--2--x-----0-----0-----0--0------2--2--x-----0-----0--|

     Em                     D6/9/F#                Em
the first thing I met was a fly witha buzz and the sky with
      D6/9/F#       Em                   D6/9/F#
no clouds       the heat was hot and the ground was dry
        Em               D6/9/F#       Em9
but the air was full of sound     I've been thru the desert
   d6/9/F#                     Em9                   D6/9/F#
on horse with no name  It felt good to get out of the rain
       Em9              D6/9/F#                      Em9
in the desert you can remember your name cause there ain't
          D6/9/F#
no one to give you no pain



this guitar tab is crude i apologize thank you for your time

            
            
Suggest correction
Creating personal tab
Creating personal tab
You can edit any tab online and save it as your Personal.

You can edit, replace or remove any tab part or add personal notes – all changes will be seen only by you.

Personal tabs can be accessed anytime from any device, even offline.
Learn more »
comments
print report bad tab
guest
You may want to rate the tab now too:
select rating
Wanna post a correction for this tab? Suggest correction