Oops, an error
Loading. Please wait.

Head And Heart Chords

version 2
version 2

Whole song

Interactive

49 views 6 this week
no commentswrite comment
1 2 3 4 5
3 more votes to show rating
add to favorites
launch autoscroll
font size
0
reset
transpose
0
reset
simplify chords
display chords
guitar tuner
Autoscroll
slow
fast
+/-
esc
set tempo
stop
Help us to improve Ultimate-Guitar.com Take our survey!
×
Author
Difficulty
intermediate
Song: Head and heart
Artist: America
Composer: John Martyn
Album: Homecoming

Tabbed by DJ ('DiddyD' at ultimateGuitar.com)
8th Oct 2016

Live video of the song at this link:
https://www.youtube.com/watch?v=brvdRvqPSeM

Dewey & Gerry just appear to play an Em7(022030) to Bm7(x24232)
but the keyboard stays more faithful to John Martyn's original
with some jazzy minor 9th chords thrown in.
For one guitar on it's own I think they're a much sweeter option,
and you can still get the little riffs in.

N.B.
Please ignore any pop-up chord boxes the website might suggest
and use the typed shapes shown below.

Em7 = 022030   E   = 022100   Em9   = 020032   E7 = 022130
Bm9 = x20222   Bm7 = x20202   Bm7 * = x24232   E4 = 033300

h = hammer-on
~ = vibrato
****************************************************************

[Intro]
   (Bm9)
e |-------5-h7--|----------|-----------|
B |--5-h7-------|---~5-----|------2----|
G |-------------|----------|--0-h2-2---|
D |-------------|----------|-----------|
A |-------------|----------|-----------|
E |-------------|----------|-----------|


[Verse riff]
       Em7                       Bm9
e |----0-0-0---0------------|----2-2-2---2------------|[x2]
B |----3-0-3---3--------2---|----2-2-2---2--------2---|
G |----0-0-0---0----0-h2-2--|----2-2-2---2----0-h2-2--|
D |----2---2---2------------|----0---0---0------------|
A |----2---2---2------------|--2-2-------2------------|
E |--0----------------------|-------------------------|


[Verse 1]
                       Em7
There's just no way to say how much I love you,
                  Bm9                 Bm7  Bm9
You never make me ....cry, and that's just fine,
                  Em7
I've only got my   ...fear to burn above me,
                    Bm9                 Bm7 Bm9
You know we all get ....scared from time to time!


[Chorus]
                  Bm7 *
Love me with your     ...head and heart,
                  Em9
Love me from the     ...place it starts,
                  Bm7 *
Love me with your     ...head and heart,
                 E
Love me like a child!


[Verse 2]
                       Em7
There's just no way to say the things I'm feeling,
                   Bm9            Bm7 Bm9
No way to tell you all the things you mean,
            Em7
Every day I only feel like stealing...
                   Bm9        Bm7 Bm9
...Away to where I know I can be free!


[Chorus]
                  Bm7 *
Love me with your    ...head and heart,
                  Em9
Love me from the     ...place it starts,
                  Bm7 *
Love me with your    ...head and heart,
                  E
Love me when I'm wild!


[Break]
  Em7                          Bm9
|  /  /  /  / |  /  /  /  /  |  /  /  /  /  |  /  /  /  /  |

  Em7                          Bm9
|  /  /  /  / |  /  /  /  /  |  /  /  /  /  |  /  /  /  /  |

  Bm7 *                        Em9
|  /  /  /  / |  /  /  /  /  |  /  /  /  /  |  /  /  /  /  |

  Bm7 *                         E
|  /  /  /  / |  /  /  /  /  |  /  /  /  /  |  /  /  /  /  |


[Verse 3]
                Em7
Laying down the ways to say I need you,
                  Bm9              Bm7  Bm9
Scared of looking tall, and feel - ing small,
                    Em7
Running through the days I have beside you,
                 Bm9             Bm7 Bm9
Scared of being wrong, and that's it all!


[Chorus]
                  Bm7 *
Love me with your     ...head and heart,
                  Em9
Love me from the      ...place it starts,
                  Bm7 *
Love me with your     ...head and heart,
                 E
Love me like a child!


[Break]
       Em7                     Bm9 Bm7 Bm9
e |----0-0-0---0-----------|----2-2-2---2-------------|[x2]
B |----3-0-3---3------2----|----2-2-0---2--------2----|
G |----0-0-0---0----2---2--|----2-2-2---2------2---2--|
D |----2---2---2--2--------|----0---0---0----2--------|
A |----2---2---2-----------|--2-----2-----------------|
E |--0---------------------|--------------------------|


[Chorus]
                  Bm7 *
Love me with your     ...head and heart,
                  Em9
Love me from the      ...place it starts,
                  Bm7 *
Love me with your     ...head and heart,
                 E     E7    E4  E   E4 E
Love me like a child!


[Coda]
       Em7                     Bm9 Bm7 Bm9
e |----0-0-0---0-----------|----2-2-2---2-------------|[x3]
B |----3-0-3---3------2----|----2-2-0---2--------2----|
G |----0-0-0---0----2---2--|----2-2-2---2------2---2--|
D |----2---2---2--2--------|----0---0---0----2--------|
A |----2---2---2-----------|--2-----2-----------------|
E |--0---------------------|--------------------------|

       Em7                     Bm9
e |----0-0-0---0-----------|----2----||
B |----3-0-3---3------2----|----2----||
G |----0-0-0---0----2---2--|----2----||
D |----2---2---2--2--------|----0----||
A |----2---2---2-----------|----2----||
E |--0---------------------|---------||
Suggest correction
Give kudos to tab author, rate the tab!
1 2 3 4 5
comments
print report bad tab
guest
You may want to rate the tab now too:
select rating
Wanna post a correction for this tab? Suggest correction