Oops, an error
Loading. Please wait.

Never Be Lonely bass

by America
55 views 3 this week
no commentswrite comment
1 2 3 4 5
3 more votes to show rating
add to favorites
×
Save as Personal and add changes to this tab that will be seen only by you. Learn more ›
×
You can save this tab as Personal to edit and correct it or add notes. All changes will be seen only by you. Learn more »
launch autoscroll
font size
0
reset
guitar tuner
edit
Autoscroll
slow
fast
+/-
esc
set tempo
stop
Author
Difficulty
[Intro]
G|---------------------------------|---------------------------------|
D|---------------------------------|---------------------------------|
A|---------------------------------|---------------------------------|
E|5-----------5---5----------------|5-----------5---5---0---3---4----|

G|---------------------------------|---------------------------------|
D|---------------------------------|---------------------------------|
A|---------------------------------|---------------------------------|
E|5-----------5---5----------------|5-----------5---5---0---3---4----|

[Verse 1]
G|---------------------------------|---------------------------------|
D|---------------------------------|---------------------------------|
A|---------------------------------|---------------------------------|
E|5-----------5---5----------------|5-----------5---5----------------|

G|---------------------------------|---------------------------------|
D|---------------------------------|---------------------------------|
A|5-----------5---5----------------|5-----------5---5-------3--------|
E|---------------------------------|---------------------------------|

G|---------------------------------|---------------------------------|
D|---------------------------------|---------------------------------|
A|---------------------------------|---------------------------------|
E|5-----------5---5----------------|5-----------5---5----------------|

G|---------------------------------|---------------------------------|
D|---------------------------------|---------------------------------|
A|5-----------5---5----------------|5-----------5---5---3---5--------|
E|---------------------------------|---------------------------------|

[Chorus]
G|---------------------------------|---------------------------------|
D|---------------------------------|---------------------------------|
A|8-----------8---8----------------|7-----------7---7----------------|
E|---------------------------------|---------------------------------|

G|---------------------------------|---------------------------------|
D|---------------------------------|---------------------------------|
A|8-----------8---8-----------5----|7-----------7---7-----------5----|
E|---------------------------------|---------------------------------|

G|---------------------------------|---------------------------------|
D|---------------------------------|---------------------------------|
A|8-----------8---8-----------5----|7--------------------------------|
E|---------------------------------|----------------0----------------|

[Interlude]
G|---------------------------------|---------------------------------|
D|---------------------------------|---------------------------------|
A|---------------------------------|5-----------5---5----------------|
E|5-----------5---5----------------|---------------------------------|

G|---------------------------------|---------------------------------|
D|---------------------------------|---------------------------------|
A|---------------------------------|5-----------5---5----------------|
E|5-----------5---5----------------|--------------------0---3---4----|

[Verse 2]
G|---------------------------------|---------------------------------|
D|---------------------------------|---------------------------------|
A|---------------------------------|---------------------------------|
E|5-----------5---5-------5--------|5-----------5---5----------------|

G|---------------------------------|---------------------------------|
D|---------------------------------|---------------------------------|
A|5-----------5---5----------------|5-----------5---5-------3--------|
E|---------------------------------|---------------------------------|

G|---------------------------------|---------------------------------|
D|---------------------------------|---------------------------------|
A|---------------------------------|---------------------------------|
E|5-----------5---5----------------|5-----------5---5----------------|

G|---------------------------------|---------------------------------|
D|---------------------------------|---------------------------------|
A|5-----------5---5----------------|5-----------5---5---3---5--------|
E|---------------------------------|---------------------------------|

[Chorus]
G|---------------------------------|---------------------------------|
D|---------------------------------|---------------------------------|
A|8-----------8---8----------------|7-----------7---7----------------|
E|---------------------------------|---------------------------------|

G|---------------------------------|---------------------------------|
D|---------------------------------|---------------------------------|
A|8-----------8---8-----------5----|7-----------7---7----------------|
E|---------------------------------|---------------------------------|

G|---------------------------------|---------------------------------|
D|---------------------------------|---------------------------------|
A|8-----------8---8-----------5----|7--------------------------------|
E|---------------------------------|----------------0----------------|

[Interlude]
G|---------------------------------|---------------------------------|
D|---------------------------------|---------------------------------|
A|---------------------------------|5-----------5---5----------------|
E|5-----------5---5-------5--------|---------------------------------|

G|---------------------------------|---------------------------------|
D|---------------------------------|---------------------------------|
A|---------------------------------|5-----------5---5-----------3----|
E|5-----------5---5-------5--------|---------------------------------|

[Bridge]
G|---------------------------------|---------------------------------|
D|---------------------------------|---------------------------------|
A|3-----------3---3-------5---6----|7-----------7---7-------7--------|
E|---------------------------------|---------------------------------|

G|---------------------------------|---------------------------------|
D|3-----------3---3----------------|3-----------3---3---2---0---2----|
A|----------------------------3----|---------------------------------|
E|---------------------------------|---------------------------------|

G|---------------------------------|---------------------------------|
D|---------------------------------|---------------------------------|
A|3-----------3---3-------5---6----|7-----------7---7-------7--------|
E|---------------------------------|---------------------------------|

G|---------------------------------|---------------------------------|
D|3-----------3---3----------------|----------------------------2----|
A|--------------------1---3---4----|5-----------5---5----------------|
E|---------------------------------|---------------------------------|

G|---------------------------------|---------------------------------|
D|4-----------4---4-----------4----|---------------------------------|
A|---------------------------------|7-----------7---7----------------|
E|---------------------------------|---------------------------------|

G|---------------------------------|---------------------------------|
D|---------------------------------|---------------------------------|
A|7-----------7---7---5------------|---------------------------------|
E|------------------------8--------|7-----------7---7----------------|

G|---------------------------------|---------------------------------|
D|---------------------------------|---------------------------------|
A|---------------------------------|---------------------------------|
E|7---7-------7---7---7------------|0---0-------0---0---0------------|

G|---------------------------------|---------------------------------|
D|---------------------------------|---------------------------------|
A|---------------------------------|---------------------------------|
E|0---0-------0---0---0---0--------|7---7-------7---7---7------------|

G|---------------------------------|---------------------------------|
D|---------------------------------|---------------------------------|
A|---------------------------------|---------------------------------|
E|7---7-------7---7---7------------|0--------------------------------|

G|---------------------------------|
D|---------------------------------|
A|---------------------------------|
E|---------------------------------|

[Interlude]
G|---------------------------------|---------------------------------|
D|---------------------------------|---------------------------------|
A|---------------------------------|---------------------------------|
E|5-----------5---5----------------|5-----------5---5----------------|

G|---------------------------------|---------------------------------|
D|---------------------------------|---------------------------------|
A|---------------------------------|---------------------------------|
E|5-----------5---5----------------|5-----------5---5---0---3---4----|

[Verse 3]
G|---------------------------------|---------------------------------|
D|---------------------------------|---------------------------------|
A|---------------------------------|---------------------------------|
E|5-----------5---5-------5--------|5-----------5---5----------------|

G|---------------------------------|---------------------------------|
D|---------------------------------|---------------------------------|
A|5-----------5---5----------------|5-----------5---5-------3--------|
E|---------------------------------|---------------------------------|

G|---------------------------------|---------------------------------|
D|---------------------------------|---------------------------------|
A|---------------------------------|---------------------------------|
E|5-----------5---5----------------|5-----------5---5----------------|

G|---------------------------------|---------------------------------|
D|---------------------------------|---------------------------------|
A|5-----------5---5----------------|5-----------5---5-------7--------|
E|---------------------------------|---------------------------------|

[Chorus]
G|---------------------------------|---------------------------------|
D|---------------------------------|---------------------------------|
A|8-----------8---8-----------5----|7-----------7---7----------------|
E|---------------------------------|---------------------------------|

G|---------------------------------|---------------------------------|
D|---------------------------------|---------------------------------|
A|8-----------8---8-----------5----|7-----------7---7----------------|
E|---------------------------------|---------------------------------|

G|---------------------------------|---------------------------------|
D|---------------------------------|---------------------------------|
A|8-----------8---8-----------5----|7--------------------------------|
E|---------------------------------|----------------0----------------|

[Interlude]
G|---------------------------------|---------------------------------|
D|---------------------------------|---------------------------------|
A|---------------------------------|5-----------5---5----------------|
E|5-----------5---5-------5--------|---------------------------------|

G|---------------------------------|---------------------------------|
D|---------------------------------|---------------------------------|
A|---------------------------------|5-----------5---5----------------|
E|5-----------5---5-------5--------|---------------------------------|

[Bridge]
G|---------------------------------|---------------------------------|
D|---------------------------------|---------------------------------|
A|3-----------3---3-------5---6----|7-----------7---7-------7--------|
E|---------------------------------|---------------------------------|

G|---------------------------------|---------------------------------|
D|3-----------3---3----------------|3-----------3---3---2---0---2----|
A|---------------------------------|---------------------------------|
E|---------------------------------|---------------------------------|

G|---------------------------------|---------------------------------|
D|---------------------------------|---------------------------------|
A|3-----------3---3----------------|7-----------7---7-------7--------|
E|---------------------------------|---------------------------------|

G|---------------------------------|---------------------------------|
D|3-----------3---3----------------|----------------------------2----|
A|--------------------1---3---4----|5-----------5---5----------------|
E|---------------------------------|---------------------------------|

G|---------------------------------|---------------------------------|
D|4-----------4---4----------------|---------------------------------|
A|---------------------------------|7-----------7---7----------------|
E|---------------------------------|---------------------------------|

G|---------------------------------|---------------------------------|
D|---------------------------------|---------------------------------|
A|7-----------7---7----------------|---------------------------------|
E|--------------------0------------|7-----------7---7----------------|

G|---------------------------------|---------------------------------|
D|---------------------------------|---------------------------------|
A|---------------------------------|---------------------------------|
E|7---7-------7---7---7------------|0---0-------0---0---0------------|

G|---------------------------------|---------------------------------|
D|---------------------------------|---------------------------------|
A|---------------------------------|---------------------------------|
E|0---0-------0---0---0---0--------|7---7-------7---7---7------------|

G|---------------------------------|---------------------------------|
D|---------------------------------|---------------------------------|
A|---------------------------------|---------------------------------|
E|7---7-------7---7---7------------|0--------------------------------|

G|---------------------------------|
D|---------------------------------|
A|---------------------------------|
E|---------------------------------|

[Interlude]
G|---------------------------------|---------------------------------|
D|---------------------------------|---------------------------------|
A|---------------------------------|---------------------------------|
E|5-----------5---5----------------|5-----------5---5-------3---4----|

G|---------------------------------|---------------------------------|
D|---------------------------------|---------------------------------|
A|---------------------------------|------------5---7----------------|
E|5-----------5---5----------------|5-------------------0---3---4----|

[Verse 4]
G|---------------------------------|---------------------------------|
D|---------------------------------|---------------------------------|
A|---------------------------------|---------------------------------|
E|5-----------5---5----------------|5-----------5---5----------------|

G|---------------------------------|---------------------------------|
D|---------------------------------|---------------------------------|
A|5-----------5---5----------------|5-----------5---5-------3--------|
E|---------------------------------|---------------------------------|

G|---------------------------------|---------------------------------|
D|---------------------------------|---------------------------------|
A|---------------------------------|---------------------------------|
E|5-----------5---5-------5--------|5-----------5---5----------------|

G|---------------------------------|---------------------------------|
D|---------------------------------|---------------------------------|
A|5-----------5---5----------------|5-----------5---5-------7--------|
E|---------------------------------|---------------------------------|

[Chorus]
G|---------------------------------|---------------------------------|
D|---------------------------------|---------------------------------|
A|8-----------8---8----------------|7-----------7---7-----------5----|
E|---------------------------------|---------------------------------|

G|---------------------------------|---------------------------------|
D|---------------------------------|---------------------------------|
A|8-----------8---8----------------|7-----------7---7-----------5----|
E|---------------------------------|---------------------------------|

G|---------------------------------|---------------------------------|
D|---------------------------------|---------------------------------|
A|8-----------8---8-----------5----|7--------------------------------|
E|---------------------------------|----------------0----------------|

[Outro]
G|---------------------------------|---------------------------------|
D|---------------------------------|---------------------------------|
A|---------------------------------|5-----------5---5-------3--------|
E|5-----------5---5-------5--------|---------------------------------|

G|---------------------------------|---------------------------------|
D|---------------------------------|---------------------------------|
A|---------------------------------|5-----------5---5-------3--------|
E|5-----------5---5----------------|---------------------------------|

G|---------------------------------|---------------------------------|
D|---------------------------------|---------------------------------|
A|---------------------------------|5-----------5---5----------------|
E|5-----------5---5-------5--------|--------------------2---3---4----|

G|---------------------------------|---------------------------------|
D|---------------------------------|---------------------------------|
A|---------------------------------|5-----------5---5-------5--------|
E|5-----------5---5-------5--------|---------------------------------|

G|---------------------------------|---------------------------------|
D|---------------------------------|---------------------------------|
A|---------------------------------|5-----------5---5-------3--------|
E|5-----------5---5----------------|---------------------------------|

G|---------------------------------|---------------------------------|
D|---------------------------------|---------------------------------|
A|---------------------------------|5-----------5---5----------------|
E|5-----------5---5-----------5----|--------------------2---3---4----|

[Repeat]
G|---------------------------------|---------------------------------|
D|---------------------------------|---------------------------------|
A|---------------------------------|5-----------5---5----------------|
E|5-----------5---5-------5--------|--------------------2---3---4----|

            
            
Suggest correction
Creating personal tab
Creating personal tab
You can edit any tab online and save it as your Personal.

You can edit, replace or remove any tab part or add personal notes – all changes will be seen only by you.

Personal tabs can be accessed anytime from any device, even offline.
Learn more »
Give kudos to tab author, rate the tab!
1 2 3 4 5
comments
print report bad tab
guest
You may want to rate the tab now too:
select rating
Wanna post a correction for this tab? Suggest correction