Oops, an error
Loading. Please wait.

Never Found The Time chords

version 2
version 2

Whole song

by America
373 views 1 this week
no commentswrite comment
1 2 3 4 5
2 more votes to show rating
add to favorites
×
Save as Personal and add changes to this tab that will be seen only by you. Learn more ›
×
You can save this tab as Personal to edit and correct it or add notes. All changes will be seen only by you. Learn more »
launch autoscroll
font size
0
reset
transpose
0
reset
simplify chords
display chords
guitar tuner
edit
Autoscroll
slow
fast
+/-
esc
set tempo
stop
Author
Difficulty
Strumming
There is no strumming pattern for this song yet. and get +5 IQ
-------------------------------------------------------------------------------
                             Never Found The Time - America
-------------------------------------------------------------------------------
Tabbed by: Edd Adams
E-mail:

Intro chords
      G     D      C    D       G    D    C  C   G  G 
e|----7-----10-----8----10------7----10---8--8---7--7------------------------|
B|----8-----10-----8----10------8----10---8--8---8--8------------------------|
G|----7-----11-----9----11------7----11---9--9---7--7------------------------|
D|----0-----0------0----0-------0----0----0--0---0--0------------------------|
A|---------------------------------------------------------------------------|
E|---------------------------------------------------------------------------|
   Verse Chords
   Gsus2 Gmaj Gsus2/A   Bm     D    Am7   Em
e|--3----3----3----------2-----3-----0-----0----------------------------------------|
B|--3----3----3----------3-----2-----1-----0----------------------------------------|
G|--0----0----0----------4-----3-----0-----0----------------------------------------|
D|--0----0----0----------4-----0-----2-----2----------------------------------------|
A|--0----2----0----------x-----x-----0-----2----------------------------------------|
E|--3----x----x----------x-----x-----x-----x----------------------------------------|

Chorus  Chords
    Em  Em7   A   Asus4
e|--0----0----0-----0---------------------------|
B|--0----3----2-----3---------------------------|
G|--0----0----2-----2---------------------------|
D|--2----2----2-----2---------------------------|
A|--2----2----0-----0---------------------------|
E|--0----0----0-----0---------------------------|


Intro (see tab for position) G D C D  G D C C G G 

 Gsus2            Gmaj   Gsus2/A           Gmaj
 Gsus2            Gmaj   Gsus2/A           Gmaj
 Gsus2            Gmaj   Gsus2/A           Gmaj
I never found the time to see things quite through
  Bm               D       Am7           Em
I never found the time to give them to you
   Gsus2              Gmaj       Am7            Em
If living don't come easy don't stop your own voice
         Gsus2           Bm        C         C          Em   A 
'Cos the worst part of living is havin’                   no choice

Em  A 

Em7        A Asus4 A     Em7                A Asus4 A
Tell me a story                 tell it with your eyes
    Em7         A Asus4 A     Em7          A Asus4 A 
I'm gonna stop believin' if I hear another lie
Bm              A          G                G   
Drink some cold water your mouth's getting dry

Em A Asus4 A
Em A Asus4 A 
D  D  D   D 

  Gsus2           Gmaj    Gsus2/A           Gmaj
  Gsus2           Gmaj    Gsus2/A           Gmaj
  Gsus2           Gmaj    Gsus2/A           Gmaj
If I only had the time to see things right through
    Bm              D             Am7           Em
I'd give up all my treasures and send them to you
    Gsus2              Gmaj     Am7            Em
Then living would seem easy no lights and no noise
    Gsus2      Bm           C       C           Em A Asus4 A 
Just me and my lady and the echo        of her voice

Em A Asus4 A

Em7        A Asus4 A     Em7                A Asus4 A
Tell me a story                 tell it with your eyes
    Em7         A Asus4 A      Em7         A Asus4 A 
I'm gonna stop believin'  if I hear another lie
Bm              A          G                G   
Drink some cold water your mouth's getting dry

Em A 
Em A Asus4 A 
D  D  D   D 

 
  G               D           C       D
I never found the time to see into my lady
    G              D            C           D
And memories don't die but with time become hazy 

(repeat to fade)also can alternate the intro chord forms here.

            
            
Suggest correction
Creating personal tab
Creating personal tab
You can edit any tab online and save it as your Personal.

You can edit, replace or remove any tab part or add personal notes – all changes will be seen only by you.

Personal tabs can be accessed anytime from any device, even offline.
Learn more »
Give kudos to tab author, rate the tab!
1 2 3 4 5
comments
print report bad tab
guest
You may want to rate the tab now too:
select rating
Wanna post a correction for this tab? Suggest correction