Oops, an error
Loading. Please wait.
We have an official Sister Golden Hair tab made by UG professional guitarists. Check out the tab »
×
by America
16,508 views 12 this week
2 commentsread comments
1 2 3 4 5
3 more votes to show rating
add to favorites
×
Save as Personal and add changes to this tab that will be seen only by you. Learn more ›
×
You can save this tab as Personal to edit and correct it or add notes. All changes will be seen only by you. Learn more »
launch autoscroll
font size
0
reset
guitar tuner
edit
Autoscroll
slow
fast
+/-
esc
set tempo
stop
Author
-----------------------------------------------------------------------------
		        Sister Golden Haid - America
-----------------------------------------------------------------------------

Tabbed By : k^paoLo
e-mail: k^paolo911@yahoo.com <--add me at friendster

Tuning: Standard EADG


Bass comes in at Verse 2

Verse 2
                E           G#m          A         E        G#m     
G|-----|----------------|------------|-------|--------|------------|
D|-----|----------------|------------|-------|--------|------------|
A|-----|-----2-2--------|--6-6----6--|-----7-|--------|--6-6----6--|
E|-12\-|-0-0-----0-0-2-3|-4----4-4--4|-5-5--4|-0-0-2-3|-4----4-4--4|

    A     F#m    C#m  G#m  A    F#m   A         E
G|-------|-------|----|----|----|----|------|-----------|
D|-------|-------|----|----|----|----|------|-----------|
A|---7---|---2-3-|-4-4|----|----|----|------|--2-0------|
E|-5---5-|-2-----|----|-4-4|-5-5|-2-2|-5-5-5|0-----4-2-0|



Chorus:
         B                     B                A               E
G|-------------------|------------------|----------------|-------------|
D|-------------------|------------------|----------------|-------------| X2
A|----------9-9-11-9-|---------9-9-11-9-|---------7-7-9-7|---2-0-------|
E|-7-7-10-11---------|-7-7-9-10---------|-5-5-8-9--------|-0-----4-2-0-|

  F#m G#m   A
G|--------------|
D|--------------|
A|--------------|
E|-2~--4~---5~--|


Do verse
Chorus
Do Chorus on "Bup do bup" part


I know there are errors in this tab..
i improvised.. especially the riff on the E chord.. i just can't figure
that out... if you have any suggestions, feel free to comment :D
there are no tabbers for this song so i thought maybe i could help out :D
Have Fun.. :D


| /  slide up
| \  slide down
| h  hammer-on
| p  pull-off
| ~  vibrato
| +  harmonic
| x  Mute note
===============================================================================

            
            
Suggest correction
Creating personal tab
Creating personal tab
You can edit any tab online and save it as your Personal.

You can edit, replace or remove any tab part or add personal notes – all changes will be seen only by you.

Personal tabs can be accessed anytime from any device, even offline.
Learn more »
Give kudos to tab author, rate the tab!
1 2 3 4 5
comments
print report bad tab
2 comments total.
0 reply
kukie1000 142 May 22, 2008 05:42 PM

pls help me figure out the riff on the E chord :D thnx

0 reply
bouscal 10 Feb 02, 2016 10:37 AM

measure marks are inaccurate but the chords are good.
Try this for the chorus
Chorus:

G|-------------------|------------------|
D|-------------------|------------------|
A|----------9-9-11-9-|---------9-9-11-9-|
E|-7-7-10-11---------|-7-7-9-10---------|

G|----------------|-------------|
D|----------------|-------------| X2
A|---------7-7-9-7|-------7-----|
E|-5-5-8-9--------|-9-7-5-------|

guest
You may want to rate the tab now too:
select rating
Wanna post a correction for this tab? Suggest correction