Oops, an error
Loading. Please wait.
We have an official Sister Golden Hair tab made by UG professional guitarists. Check out the tab »
×
by America
56,145 views 51 this week
5 commentsread comments
1 2 3 4 5
x 24
add to favorites
×
Save as Personal and add changes to this tab that will be seen only by you. Learn more ›
×
You can save this tab as Personal to edit and correct it or add notes. All changes will be seen only by you. Learn more »
launch autoscroll
font size
0
reset
how to read this tab
guitar tuner
edit
Autoscroll
slow
fast
+/-
esc
set tempo
stop
Author
Difficulty
Unregistered
intermediate
Sister Golden Hair - America

Tabbed by: Matt Hunzinger
Email:
Tuning: Standard

e|-------------~11~------------------~12~-12\11-~11~-11\~9~------------------|
B|--7-/-9---12-----------7-/-9---12------------------------------------------|
G|---------------------------------------------------------------------------|
D|---------------------------------------------------------------------------|
A|---------------------------------------------------------------------------|
E|---------------------------------------------------------------------------|

************************************

| \  Slide down
| ~  Vibrato
| /  Slide up

************************************

            
            
Suggest correction
Creating personal tab
Creating personal tab
You can edit any tab online and save it as your Personal.

You can edit, replace or remove any tab part or add personal notes – all changes will be seen only by you.

Personal tabs can be accessed anytime from any device, even offline.
Learn more »
comments
print report bad tab
5 comments total. Showing first comments.
+1 reply
Joe Welsh 52 Aug 01, 2006 07:51 PM

this can also be played easier as:

|--------11--------12-12s11-11s9--|
|-----12--------12----------------|
|-13v-------13v-------------------|

0 reply
funkyfingers99 52 Apr 28, 2007 05:51 AM

Good Tab keep it up!

0 reply
Barzma 10 Oct 12, 2010 01:06 AM

easier intro

1-------------11-------------12
2---------12-------------12----
3--10/13----------10/13--------

guest
Wanna post a correction for this tab? Suggest correction