Oops, an error
Loading. Please wait.
We have an official Sister Golden Hair tab made by UG professional guitarists. Check out the tab »
×
by America
8,897 views 21 this week
no commentswrite comment
1 2 3 4 5
x 11
add to favorites
×
Save as Personal and add changes to this tab that will be seen only by you. Learn more ›
×
You can save this tab as Personal to edit and correct it or add notes. All changes will be seen only by you. Learn more »
launch autoscroll
font size
0
reset
guitar tuner
edit
Autoscroll
slow
fast
+/-
esc
set tempo
stop
Author
Difficulty
[INTRO]
  C#m      A        E        E        G#m      G#m      C#m      B        A
G:--------|--------|--------|--------|--------|--------|--------|--------|--------|
D:--------|--------|--------|--------|--------|--------|--------|--------|--------|
A:4-------|0-------|--------|--------|--------|--------|4-------|2-------|0-------|
E:--------|--------|0-------|0-------|4-------|4-------|--------|--------|--------|

[VERSE]
       E                E            G#m             G#m
Well I tried to make it Sunday but I got so damned depressed
       A                E            G#m          G#m
That I set my sights on Monday and I got myself undressed
        A             F#m         C#m  G#m          A
I ain't ready for the altar but I do  agree there's times
       F#m            A              E      Esus4
When a woman sure can be a friend of mine

  E        E        G#m      G#m      A        E        G#m      G#m 
G:--------|--------|--------|--------|--------|--------|--------|--------|
D:--------|--------|--------|--------|--------|--------|--------|--------|
A:--------|--------|--------|--------|0-------|--------|--------|--------|
E:0-------|0-------|4-------|4-------|--------|0-------|4-------|4-------|

  A        F#m      C#m G#m  A        F#m      A        E        Esus4
G:--------|--------|--------|--------|--------|--------|--------|--------|
D:--------|--------|--------|--------|--------|--------|--------|--------|
A:0-------|--------|4-------|0-------|--------|0-------|--------|--------|
E:--------|2-------|----4---|--------|2-------|--------|0-------|0-------|

[VERSE]
       E                 E               G#m            G#m
Well I keep on thinkin' 'bout you sister golden hair surprise
      A                   E                   G#m          G#m
And I just can't live without you   Can't you see it in my eyes?
          A              F#m               C#m     G#m     A
I've been one poor correspondent I've been too too hard to find
       F#m              A                      E      Esus4
But it doesn't mean you ain't been on my mind

  E        E        G#m      G#m      A        E        G#m      G#m 
G:--------|--------|--------|--------|--------|--------|--------|--------|
D:--------|--------|--------|--------|----2---|--------|--------|--------|
A:----2--2|--------|----6--6|--------|0--0----|--------|----6--6|--------|
E:0--0----|0--02-3-|4--4----|4--47-4-|------4-|0--02-3-|4--4----|4--47--4|

  A        F#m      C#m G#m  A        F#m      A        E        Esus4
G:--------|--------|--------|--------|--------|--------|--------|--------|
D:----2---|--------|--------|--------|--------|--------|2-------|--------|
A:0--0--0-|----0-2-|4--4----|0--00--0|--------|0--00-24|--4-2---|--------|
E:--------|2--2----|----4--4|--------|2--22-24|--------|------4-|0-0-----|

[CHORUS]
         B              B                A              E
Will you meet me in the middle? Will you meet me in the end?
         B              B             A                 E
Will you love me just a little? Just enough to show you care?
       F#m                  G#m                   A
Well I tried to fake it   I don't mind sayin'   I just can't make it

  B        B        A        E        B        B        A        E 
G:------1-|------1-|--------|--------|------1-|------1-|--------|--------|
D:--0-44-4|--0-44-4|----22-2|2-------|--0-44-4|--0-44-4|----22-2|2-------|
A:22-2----|22-2----|0034--4-|--4-2--0|22-2----|22-2----|0034--4-|--4-2---|
E:--------|--------|--------|-----24-|--------|--------|--------|------4-|

  F#m      G#m      A        
G:--------|--------|--------|--------|
D:--------|--------|--------|--------|
A:--------|--------|0-------|--------|
E:2-------|4-------|--------|--------|

[Bridge]
  C#m      A        E        E        G#m      G#m      C#m      B        A
G:--------|--------|--------|--------|--------|--------|--------|--------|--------|
D:--------|--------|--------|--------|--------|--------|--------|--------|--------|
A:4-------|0-------|--------|--------|--------|--------|4-------|2-------|0-------|
E:--------|--------|0-------|0-------|4-------|4-------|--------|--------|--------|

[VERSE]
       E                 E               G#m            G#m
Well I keep on thinkin' 'bout you sister golden hair surprise
      A                   E                   G#m          G#m
And I just can't live without you   Can't you see it in my eyes?
          A              F#m               C#m     G#m     A
I've been one poor correspondent I've been too too hard to find
       F#m              A                      E      Esus4
But it doesn't mean you ain't been on my mind

  E        E        G#m      G#m      A        E        G#m      G#m 
G:--------|--------|--------|--------|--------|--------|--------|--------|
D:--------|2--2----|--------|--------|--------|--------|--------|--------|
A:----2--2|----2---|----6--6|--------|0--00---|--------|----6--6|--------|
E:0--0----|------3-|4--4----|4--44-4-|------4-|0--02-3-|4--4----|4--47--4|

  A        F#m      C#m G#m  A        F#m      A        E        Esus4
G:--------|--------|--------|--------|--------|--------|--------|--------|
D:--------|--------|--------|--------|--------|--------|2-------|--------|
A:0--00-0-|----0-2-|4--4----|0--00--0|--------|0--00-24|--4-2---|--------|
E:--------|2--2----|----4--4|--------|2--22-24|--------|------4-|0-0-----|

[CHORUS]
         B              B                A              E
Will you meet me in the middle? Will you meet me in the end?
         B              B             A                 E
Will you love me just a little? Just enough to show you care?
       F#m                  G#m                   A
Well I tried to fake it   I don't mind sayin'   I just can't make it

  B        B        A        E        B        B        A        E 
G:------1-|------1-|22------|--------|------1-|------1-|--------|--------|
D:--0-44-4|--0-44-4|--442--0|2-------|--0-44-4|--0-44-4|----22-2|2-------|
A:22-2----|22-2----|-----24-|--4-2--0|22-2----|22-2----|0034--4-|--4-2---|
E:--------|--------|--------|-----24-|--------|--------|--------|------4-|

  F#m      G#m      A        
G:--------|--------|--------|--------|
D:--------|--------|--------|--------|
A:--------|--------|0-------|--------|
E:2-------|4-------|--------|--------|

Tabbed by Michael Oxner (moxner@nbnet.nb.ca)

            
            
Suggest correction
Creating personal tab
Creating personal tab
You can edit any tab online and save it as your Personal.

You can edit, replace or remove any tab part or add personal notes – all changes will be seen only by you.

Personal tabs can be accessed anytime from any device, even offline.
Learn more »
comments
print report bad tab
guest
You may want to rate the tab now too:
select rating
Wanna post a correction for this tab? Suggest correction