Oops, an error
Loading. Please wait.

Sometimes Lovers Bass Tab

22 views 1 this week
no commentswrite comment
1 2 3 4 5
3 more votes to show rating
add to favorites
launch autoscroll
font size
0
reset
guitar tuner
Autoscroll
slow
fast
+/-
esc
set tempo
stop
Help us to improve Ultimate-Guitar.com Take our survey!
×
Intro :
G|---------------------------------|---------------------------------|
D|---------------------------------|---------------------------------|
A|6--------------------------------|8---------------------------8----|
E|---------------------------------|---------------------------------|

G|---------------------------------|---------------------------------|
D|---------------------------------|5---7---8------------------------|
A|5--------------------------------|--------------------5------------|
E|---------------------------------|---------------------------------|

G|---------------------------------|---------------------------------|
D|---------------------------------|---------------------------------|
A|6--------------------------------|8---------------------------8----|
E|---------------------------------|---------------------------------|

G|---------------------------------|---------------------------------|
D|---------------------------------|5---7---8------------------------|
A|5--------------------------------|--------------------5------------|
E|---------------------------------|---------------------------------|

Verse 1 :
G|---------------------------------|---------------------------------|
D|---------------------------------|---------------------------------|
A|6--------------------------------|8---------------------------8----|
E|---------------------------------|---------------------------------|

G|---------------------------------|---------------------------------|
D|---------------------------------|5--------------------------------|
A|5--------------------------------|------------------------8--------|
E|---------------------------------|---------------------------------|

G|---------------------------------|---------------------------------|
D|---------------------------------|---------------------------------|
A|6--------------------------------|8---------------------------8----|
E|---------------------------------|---------------------------------|

G|---------------------------------|---------------------------------|
D|---------------------------------|5--------------------------------|
A|5---------------------------5----|---------------------------------|
E|---------------------------------|---------------------------------|

G|---------------------------------|---------------------------------|
D|---------------------------------|---------------------------------|
A|3-----------3---5----------------|8-----------8---8-----------8----|
E|---------------------------------|---------------------------------|

Chorus :
G|---------------------------------|---------------------------------|
D|---------------------------------|---------------------------------|
A|----------------6----------------|8-----------8---8-------6--------|
E|6-----------6--------------------|---------------------------------|

G|---------------------------------|---------------------------------|
D|8-----------8--------------------|---------------------------------|
A|----------------6-----------6----|8-----------8---8-------6--------|
E|---------------------------------|---------------------------------|

G|---------------------------------|---------------------------------|
D|----------------5----------------|----------------5----------------|
A|5-----------5--------------------|5-----------5--------------------|
E|---------------------------------|---------------------------------|

G|---------------------------------|---------------------------------|
D|---------------------------------|---------------------------------|
A|6-----------6--------------------|3--------------------------------|
E|---------------------------------|---------------------------------|

G|---------------------------------|---------------------------------|
D|---------------------------------|---------------------------------|
A|6-----------5--------------------|---------------------------------|
E|---------------------------------|1--------------------------------|

G|---------------------------------|---------------------------------|
D|---------------------------------|8--------------------------------|
A|6-----------------------8--------|---------------------------------|
E|---------------------------------|------------------------1--------|

Verse 2 :
G|---------------------------------|---------------------------------|
D|---------------------------------|---------------------------------|
A|6---------------------------6----|8--------------------------------|
E|---------------------------------|----------------------------1----|

G|---------------------------------|---------------------------------|
D|---------------------------------|5-------------------5------------|
A|5---------------------------5----|------------------------8--------|
E|---------------------------------|---------------------------------|

G|---------------------------------|---------------------------------|
D|---------------------------------|---------------------------------|
A|6---------------------------6----|8--------------------------------|
E|---------------------------------|----------------------------1----|

G|---------------------------------|---------------------------------|
D|---------------------------------|5--------------------------------|
A|5---------------------------5----|---------------------------------|
E|---------------------------------|---------------------------------|

G|---------------------------------|---------------------------------|
D|---------------------------------|---------------------------------|
A|3-----------3---5----------------|8-----------8---8-----------8----|
E|---------------------------------|---------------------------------|

Chorus :
G|---------------------------------|---------------------------------|
D|---------------------------------|---------------------------------|
A|----------------6----------------|8-----------8---8-------6--------|
E|6-----------6--------------------|---------------------------------|

G|---------------------------------|---------------------------------|
D|8-----------8--------------------|---------------------------------|
A|----------------6-----------6----|8-----------8---8-------6--------|
E|---------------------------------|---------------------------------|

G|---------------------------------|---------------------------------|
D|----------------5----------------|----------------5----------------|
A|5-----------5--------------------|5-----------5--------------------|
E|---------------------------------|---------------------------------|

G|---------------------------------|---------------------------------|
D|---------------------------------|---------------------------------|
A|6-----------6--------------------|3--------------------------------|
E|---------------------------------|---------------------------------|

G|---------------------------------|---------------------------------|
D|---------------------------------|---------------------------------|
A|6-----------5--------------------|---------------------------------|
E|---------------------------------|1--------------------------------|

Bridge :
G|---------------------------------|---------------------------------|
D|6---------------------------6----|8---------------------------8----|
A|---------------------------------|---------------------------------|
E|---------------------------------|---------------------------------|

G|---------------------------------|---------------------------------|
D|10--------------------------10---|12-------------------------------|
A|---------------------------------|---------------------------------|
E|---------------------------------|---------------------------------|

G|---------------------------------|---------------------------------|
D|6---------------------------6----|8---------------------------8----|
A|---------------------------------|---------------------------------|
E|---------------------------------|---------------------------------|

G|---------------------------------|---------------------------------|
D|10--------------------------10---|12-------------------------------|
A|---------------------------------|---------------------------------|
E|---------------------------------|---------------------------------|

G|---------------------------------|---------------------------------|
D|----3---5------------------------|---------------------------------|
A|5-------------------6---5--------|--------------------0---3--------|
E|---------------------------------|1-----------1---3----------------|

G|---------------------------------|--------------------5---7--------|
D|---------------------------------|5---7---8------------------------|
A|5---7---8-----------5------------|---------------------------------|
E|---------------------------------|---------------------------------|

G|---------------------------------|---------------------------------|
D|----3---5-----------3------------|---------------------------------|
A|5--------------------------------|--------------------0---3--------|
E|---------------------------------|1-----------1---3----------------|

G|---------------------------------|--------------------5---7--------|
D|---------------------------------|5---7---8------------------------|
A|5---7---8-----------5------------|---------------------------------|
E|---------------------------------|---------------------------------|

G|---------------------------------|---------------------------------|
D|----3---5-----------3------------|---------------------------------|
A|5--------------------------------|---------------------------------|
E|---------------------------------|1-----------1---1----------------|

Chorus : (fade out)
G|---------------------------------|---------------------------------|
D|---------------------------------|---------------------------------|
A|----------------6----------------|8-----------8---8-------6--------|
E|6-----------6--------------------|---------------------------------|

G|---------------------------------|---------------------------------|
D|8-----------8--------------------|---------------------------------|
A|----------------6-----------6----|8-----------8---8-------6--------|
E|---------------------------------|---------------------------------|

G|---------------------------------|---------------------------------|
D|----------------5----------------|----------------5----------------|
A|5-----------5--------------------|5-----------5--------------------|
E|---------------------------------|---------------------------------|

G|---------------------------------|---------------------------------|
D|---------------------------------|---------------------------------|
A|6-----------6--------------------|3-----------3---3-------3--------|
E|---------------------------------|---------------------------------|
Suggest correction
Give kudos to tab author, rate the tab!
1 2 3 4 5
comments
print report bad tab
guest
You may want to rate the tab now too:
select rating
Wanna post a correction for this tab? Suggest correction