Oops, an error
Loading. Please wait.
We have Chord Pro version of Ventura Highway.
It's the closest thing you can get to the original song and it has interactive parts. Check out the tab »
×
by America
204,535 views 189 this week
13 commentsread comments
1 2 3 4 5
x 19
add to favorites
×
Save as Personal and add changes to this tab that will be seen only by you. Learn more ›
×
You can save this tab as Personal to edit and correct it or add notes. All changes will be seen only by you. Learn more »
launch autoscroll
font size
0
reset
transpose
0
reset
display chords
guitar tuner
backing track
0:00
0:00
edit
Autoscroll
slow
fast
+/-
esc
set tempo
stop
Author
Strumming
There is no strumming pattern for this song yet. and get +5 IQ
Ventura Highway - America.

To really do this song right, you need at least two guitars, and the one doing the riff
should be a twelve string. I've charted it for 2 guitars Rhythm Guitar, (Rhy) and lead
guitar (Lead). All riffs are done by the lead.

(Riff 1)

e|-----5---ho7---po5-----------------------------------------------------------|
B|-----------------------7----5----ho7----po5--------------------5-------------|
G|---------------------------------------------------6---6---sl7---------7-----|
D|-----------------------------------------------------------------------------|
A|-----------------------------------------------------------------------------|
E|-----------------------------------------------------------------------------|

(Riff 2)

e|-----5---ho7---po5---------------------------------------------------------|
B|---------------------7----5----ho7----po5--------------------5-------------|
G|------------------------------------------------6---6---sl7---------5------|
D|---------------------------------------------------------------------------|
A|---------------------------------------------------------------------------|
E|---------------------------------------------------------------------------|


[Intro]

(lead) Riff 1| Riff 2
(rhy)   G | D


[Verse 1]
                                                      (Riff 2)
G                                                  Dm
Chewin' on a piece of grass, walkin' down the road.
(lead)                                                (Riff 1)
(Rhy)  G                                Dm
           Tell me, how long you gonna stay here Joe?
(lead)                                                  (Riff 2)
(rhy)    G                            Dm
Some people say this town don't look good in snow.

(lead)    Tacet until end of chorus
(rhy)     G             Dm
You don't care, I know.


[Chorus]

G                      Dm
Ventura highway in the sunshine
  G                                                       Dm
Where the days are longer, the nights are stronger than moonshine
G                Dm        F#m
You gotta go, I know
G                               Dm
'Cause the free wind is blowin' through your hair
         G                 Dm
And the days surround your daylight there
G                Dm
Seasons crying no despair
G                  Dm
Alligator lizards in the air
G
In the air

(Do the intro, except switch riffs one and two with one another.)


[Verse 2]

(Lead)                                                  (Riff 2)
        (Rhy)    G                                          Dm
                Wishin' on a fallin' star, waitin' for the early train


(Lead)                                              (Riff 1)
        (Rhy)    G                           Dm
                Sorry son, But I been hit by Purple rain

(Lead)                                              (Riff 2)
        (Rhy)     G                            Dm
                Aw, c'mon Joe, You can always change your name

(Lead)                  Tacet
        (Rhy)    G                                Dm
                Thanks a lot son, just the same.


[Chorus]

G                      Dm
Ventura highway in the sunshine
  G                                                       Dm
Where the days are longer, the nights are stronger than moonshine
G                Dm        F#m
You gotta go, I know
G                               Dm
'Cause the free wind is blowin' through your hair
         G                 Dm
And the days surround your daylight there
G                Dm
Seasons crying no despair
G                  Dm
Alligator lizards in the air
G
In the air


To get the timing right with the words, you'll have to listen to the song.
Also, if you have 3 guitar players, if the 3rd plays the same riffs that the lead plays,
except 3 frets higher, it gives a really nice sound. You don't need a 12-string, but it
helps.

************************************

| ho - hammer on
| po - pull off
| sl - slide

************************************

            
            
Suggest correction
Creating personal tab
Creating personal tab
You can edit any tab online and save it as your Personal.

You can edit, replace or remove any tab part or add personal notes – all changes will be seen only by you.

Personal tabs can be accessed anytime from any device, even offline.
Learn more »
comments
print report bad tab
13 comments total. Showing first comments.
+3 reply
Belgarion89 10 Nov 22, 2006 04:24 PM

It's Dmaj7, actaully. xx0333

+2 reply
sandman_81 10 Mar 08, 2008 11:25 PM

the riffs are slightly wrong.

the end notes for each riff are wrong as follows:

(Riff 1)

HiE---5---ho7---po5------------------------------------------------|
B--------------------7---5---ho7---po5-----------------7-----------|
G----------------------------------------6---6---ho7-------7-------|
D------------------------------------------------------------------|
A------------------------------------------------------------------|
E------------------------------------------------------------------|


(Riff 2)

HiE---5---ho7---po5------------------------------------------------|
B--------------------7---5---ho7---po5-----------------7-----------|
G----------------------------------------6---6---ho7-------6-------|
D------------------------------------------------------------------|
A------------------------------------------------------------------|
E------------------------------------------------------------------|


hope this helps!! thx for posting

Rick, of the Stone Cellar Band: www.myspace.com/thestonecellarband

0 reply
sandman_81 10 Mar 08, 2008 11:29 PM

the riffs are slightly wrong.

the end notes for each riff are wrong as follows:

(Riff 1)

HiE---5---ho7---po5------------------------------------------------|
B--------------------7---5---ho7---po5-----------------7-----------|
G----------------------------------------6---6---ho7-------7-------|
D------------------------------------------------------------------|
A------------------------------------------------------------------|
E------------------------------------------------------------------|


(Riff 2)

HiE---5---ho7---po5------------------------------------------------|
B--------------------7---5---ho7---po5-----------------7-----------|
G----------------------------------------6---6---ho7-------6-------|
D------------------------------------------------------------------|
A------------------------------------------------------------------|
E------------------------------------------------------------------|


hope this helps!! thx for posting

Rick, of the Stone Cellar Band: www.myspace.com/thestonecellarband

guest
You may want to rate the tab now too:
select rating
Wanna post a correction for this tab? Suggest correction