Oops, an error
Loading. Please wait.

You Can Do Magic Chords

version 1
version 1

Whole song

Interactive

by America
65,469 views 54 this week
4 commentsread comments
1 2 3 4 5
x 18
add to favorites
×
Save as Personal and add changes to this tab that will be seen only by you. Learn more ›
launch autoscroll
font size
0
reset
transpose
0
reset
simplify chords
display chords
guitar tuner
Autoscroll
slow
fast
+/-
esc
set tempo
stop
Author
Strumming
There is no strumming pattern for this song yet. and get +5 IQ
[Intro]

e|-12--------10--------7~~~--|-7p5------5----------------|
B|----12--8-----10--7--------|-----8--5---8-5----5/8--5--|
G|---------------------------|----------------7----------|
D|---------------------------|---------------------------|
A|---------------------------|---------------------------|
E|---------------------------|---------------------------|

e|-15p12---10/12~~~--|
B|-------------------|
G|-------------------|
D|-------------------|
A|-------------------|
E|-------------------|

Chords:

Em   022000
Dmaj x00232
Cmaj 332010
Am   x02210
Bm   224432


[Verse 1]

   Em       Dmaj        Em   Dmaj            Em
"I never believed in things that I couldn't see
           Dmaj       Em    Dmaj           Em
 I said if I can't feel it then how can it be
Dmaj    Em          Dmaj        Em    Dmaj
 No, no magic could happen to me
           Em    Dmaj   Em       Dmaj       Em
 And then I saw you, I couldn't believe it,
             Dmaj      Em        Dmaj       Em
 You took my heart, I couldn't retrieve it,
           Dmaj            Em      Dmaj
 Said to myself, what's it all about
Cmaj                  Dmaj
 Now I know there can be no doubt"

[Chorus]
(Em and Dmaj chords with the same rhythm as verse parts):

"You can do magic
 You can have anything that you desire
 Magic, and you know
 You're the one who can put out the fire"

[Post-Chorus]
(Same chords and rythm):

"You know darn well
 When you cast your spell
                          ~~~~~~~~
e|-------------------19p15--------|
B|--------------------------------|
G|--------------------------------|
D|--------------------------------|
A|--------------------------------|
E|--------------------------------|

 you will get your way
 When you hypnotize
                       ~~~~~~~~~~~
e|----------------15p12-----------|
B|--------------------------------|
G|--------------------------------|
D|--------------------------------|
A|--------------------------------|
E|--------------------------------|

with your eyes
A heart of stone can turn to clay".
                                   ~~~~~~~~~
e|------------------------------5h7-----------|
B|--------------------------------------------|
G|--------------------------------------------|
D|--------------------------------------------|
A|--------------------------------------------|
E|--------------------------------------------|

(And then, this is heard during the "doo-doos" part; each note
 is for every "doo")
e|-7--5--0--2--3--|--7--5--0--2--3--2---0--|
B|----------------|-------------------3----|
B|----------------|------------------------|
G|----------------|------------------------|
D|----------------|------------------------|
A|----------------|------------------------|
E|----------------|------------------------|

[Verse 2]

"And when the rain is beatin' upon the window pane
 And when the night it gets so cold,
 When I can't sleep

e|----------------15p12---10h12~~~--|
B|----------------------------------|
G|----------------------------------|
D|----------------------------------|
A|----------------------------------|
E|----------------------------------|

 Again you come to me
 I hold you tight, the rain disappears
 Who would believe it
 With a word you dry my tears"

[Chorus]
(Em and Dmaj chords with the same rhythm as verse parts):

"You can do magic
 You can have anything that you desire
 Magic, and you know
 You're the one who can put out the fire"

[Post-Chorus 2]

"You know darn well
 When you cast your spell
                             ~~~~~~~
e|----------------------15h19-------|
B|----------------------------------|
G|----------------------------------|
D|----------------------------------|
A|----------------------------------|
E|----------------------------------|

 you will get your way
 When you hypnotize
                        ~~~~~~~~~~~~
e|-----------------15p12------------|
B|----------------------------------|
G|----------------------------------|
D|----------------------------------|
A|----------------------------------|
E|----------------------------------|

 with your eyes
 A heart of stone can turn to clay"
                                     ~~~~~~~~~
e|--------------------------------5h7-----------|
B|----------------------------------------------|
G|----------------------------------------------|
D|----------------------------------------------|
A|----------------------------------------------|
E|----------------------------------------------|

(Repeat "doo-doos" part)

Cmaj
"And If I wanted to
Bm                 Em
 I could never be free
   Am                    Bm
 I never believed it was true
     Cmaj                 Dmaj
 But now it's so clear to me"

[Chorus]
(Em and Dmaj chords with the same rhythm as verse parts):

"You can do magic
 You can have anything that you desire
 Magic, and you know
 You're the one who can put out the fire"

[Post-Chorus 3]

"You know darn well
 When you cast your spell
                             ~~~~~~~~~
e|----------------------15h19-----------|
B|--------------------------------------|
G|--------------------------------------|
D|--------------------------------------|
A|--------------------------------------|
E|--------------------------------------|

 you will get your way
 When you hypnotize
                      ~~~~~~~~~~
e|-----------------5h7----------------|
B|------------------------------------|
G|------------------------------------|
D|------------------------------------|
A|------------------------------------|
E|------------------------------------|

 with your eyes
 A heart of stone can turn to clay"
                                       ~~~~~~~~~
e|--------------------------------15p12-----------|
B|------------------------------------------------|
G|------------------------------------------------|
D|------------------------------------------------|
A|------------------------------------------------|
E|------------------------------------------------|

(Repeat "doo-doos" part)

************************************

| H     hammer-on
| p     pull-off
| /     slide-up
| ~     left hand vibrato
| ~~~~~ Trill

************************************
Suggest correction
comments
print report bad tab
4 comments total. Showing first comments.
0 reply
VSG 10 Jun 13, 2007 05:28 PM

My take on the intro:

e|-12--------10---------------|-5h7p5----4----------------|
B|----12--------10------10~~~|--------8-----8-5----5/8--5--|
G|--------12-------11--------|-------------------7----------|
D|---------------------------|---------------------------|
A|---------------------------|---------------------------|
E|---------------------------|---------------------------|

0 reply
VSG 10 Jun 13, 2007 05:29 PM

Oops, minor correction----


e|-12--------10--------------|-5h7p5----5----------------|
B|----12--------10------10~~~|--------8-----8-5----5/8--5--|
G|--------12-------11--------|-------------------7----------|
D|---------------------------|---------------------------|
A|---------------------------|---------------------------|
E|---------------------------|---------------------------|

0 reply
mjsee1969 10 Jan 03, 2012 08:16 PM

There are a few note changes. Three notes above which I do not hear. This is the way I hear it. Try it. I think it is right and not so confusing. My correction is below.

TRO:
e|-12--------10--------7~~~--|-7p5----------------------|
B|----12--8-----10--7--------|-----8--5--------5/8--5--|
G|---------------------------|----------------7----------|
D|---------------------------|---------------------------|
A|---------------------------|---------------------------|
E|---------------------------|---------------------------|

e|-15p12---10/12~~~--|
B|-------------------|
G|-------------------|
D|-------------------|
A|-------------------|
E|-------------------|

guest
You may want to rate the tab now too:
select rating
Wanna post a correction for this tab? Suggest correction