Oops, an error
Loading. Please wait.

Believer tab

10,545 views 3 this week
3 commentsread comments
1 2 3 4 5
x 13
add to favorites
×
Save as Personal and add changes to this tab that will be seen only by you. Learn more ›
×
You can save this tab as Personal to edit and correct it or add notes. All changes will be seen only by you. Learn more »
launch autoscroll
font size
0
reset
how to read this tab
guitar tuner
edit
Autoscroll
slow
fast
+/-
esc
set tempo
stop
Author
Difficulty
This is my first tab but I'm pretty confident in it. This is a great band so share 
them to the world. They deserve to be famous!





--------------
|INTRO.. 0:04|
--------------

This is the little intro riff (guitar tabbed). It's the best mimic you can do 
based off of a mandolin.

E|--------------------------------------------------------------------7--7--7--7--7--5--5--5--|
B|--------------5----7--------------------------------------5----7----------------------------|
G|--7--7--7--7------------7--7--7--7-------6----7--7--7--7------------------------------------| x2
D|------------------------------------7-------------------------------------------------------|
A|--------------------------------------------------------------------------------------------|
E|--------------------------------------------------------------------------------------------|

----------------
|VERSE 1.. 0:20|
----------------

D
I'm a little bit sheltered

A
I'm a little bit scared

D
I'm a little bit nervous

G
I'm goin' nowhere

D
I'm a little bit jealous

A
I'm a little bit slow

D
I'm a little bit hurtful

G
and I don't wanna let it go

D            A

D
Noooo

G
And I don't wanna let it go

----------------
|VERSE 2.. 0:47|
----------------

D
I'm a little bit angry

A
When everyone's around

D
But I get a little lonely

G
When no one's out

D         G         Bm      A 
I feel my demons misleading me

---------------
|CHORUS.. 1:00|
---------------

D                    A
I'm just a believer, that things will get better

D
Some can take it or leave it

G
But I don't wanna let it go

D                    A
I'm just a believer, that things will get better

D
Some can take it or leave it

G
But I don't wanna let it go
----------------
|VERSE 3.. 1:16|
----------------

D
Maybe when I get older

A
And I'm in the ground

D
Weight off my shoulders

G
It was bringin' me down

D
I've never been that lucky

A
I've never tasted fame

D
I was always lookin' for somethin'

G
But I hate changing

---------------
|BRIDGE.. 1:32|
---------------

D
Cause time fades

G
There's no space

Bm                 A
As life breaks new ground


---------------
|CHORUS.. 1:40|
---------------

D                    A
I'm just a believer, that things will get better

D
Some can take it or leave it

G
But I don't wanna let it go

D                    A
I'm just a believer, that things will get better

D
Some can take it or leave it

G
But I don't wanna let it go

-----------------
|BRIDGE 2.. 1:59|
-----------------

D                         A
It doesn't matter what is out there

D                         A 
My head is spinnin' and I won't bail out

D                         A
It doesn't matter what is out there

---------------
|BRIDGE.. 2:12|
---------------

D
Cause time fades

G
There's no space

Bm                 A
As life breaks new ground

---------------
|CHORUS.. 2:20|
---------------

N.C
I'm just a believer, that things will get better

N.C
Some can take it or leave it

N.C
But I don't wanna let it go

D                    A
I'm just a believer, that things will get better

D
Some can take it or leave it

G
But I don't wanna let it go

D                    A
I'm just a believer, that things will get better

D
Some can take it or leave it

G
But I don't wanna let it go



-That's all folks hope you enjoyed.
-Here's the bands site: http://weareamericanauthors.com/

            
            
Suggest correction
Creating personal tab
Creating personal tab
You can edit any tab online and save it as your Personal.

You can edit, replace or remove any tab part or add personal notes – all changes will be seen only by you.

Personal tabs can be accessed anytime from any device, even offline.
Learn more »
comments
print report bad tab
3 comments total.
+2 reply
jaxton.winder 41 Jun 30, 2013 09:02 PM

This is my quick take on it. I found this out by ear and it sounds better in my opinion. This was a really quick finding, and I haven't spent much time on it. If I figure out any more, I'll let you know.

E|------------------------------------------|
B|--------------5----7----------------------|
G|--7--7--7--7------------7--7--7--7--4-----|
D|--------------------------------------7---|
A|------------------------------------------|
E|------------------------------------------|

-2 reply
jaxton.winder 41 Jun 30, 2013 09:04 PM

Also I forgot to mention, the band seems to play this song around the C chord on their live versions. I might be wrong, but at a quick glance it appears he's playing a C chord instead of a D.

-1 reply
karriejjj 51 Mar 08, 2014 12:41 AM

It's good but I think it should be D D Bm G instead of D A D G

guest
You may want to rate the tab now too:
select rating
Wanna post a correction for this tab? Suggest correction