Oops, an error
Loading. Please wait.
We have Chord Pro version of Best Day Of My Life.
It's the closest thing you can get to the original song and it has interactive parts. Check out the tab »
×

Best Day Of My Life intro tab

version 1
version 1

Intro

Whole song

Interactive

40,243 views 33 this week
6 commentsread comments
1 2 3 4 5
x 45
add to favorites
×
Save as Personal and add changes to this tab that will be seen only by you. Learn more ›
×
You can save this tab as Personal to edit and correct it or add notes. All changes will be seen only by you. Learn more »
launch autoscroll
font size
0
reset
how to read this tab
guitar tuner
backing track
0:00
0:00
edit
Autoscroll
slow
fast
+/-
esc
set tempo
stop
Difficulty
I did this by ear, so I'm pretty sure it isn't correct. I haven't found any other 
tabs for this song so I just made my own. 
If any mistakes, feel free to edit :)

e|-------14-12-10----10----------14-12-10--17-14-----------------------------|
B|-12-15----------12-------12-15---------------------------------------------|
G|---------------------------------------------------------------------------|
D|---------------------------------------------------------------------------|
A|---------------------------------------------------------------------------|
E|---------------------------------------------------------------------------|

            
            
Suggest correction
Creating personal tab
Creating personal tab
You can edit any tab online and save it as your Personal.

You can edit, replace or remove any tab part or add personal notes – all changes will be seen only by you.

Personal tabs can be accessed anytime from any device, even offline.
Learn more »
comments
print report bad tab
6 comments total. Showing first comments.
+2 reply
alex.kocher.50 10 Jul 29, 2013 07:11 PM

e|-------14-12-10----10----------14-12-10---17-14S12-14-----------------------|
B|----15-----------12----------15---------------------------------------------|
G|-14----------------------14------------------------------------------------|
D|---------------------------------------------------------------------------|
A|---------------------------------------------------------------------------|
E|---------------------------------------------------------------------------|


Great start. It was really easy to fix, I think this should be right. The S is just a slide down(idk how people normal denote that)

+6 reply
Josay-uh 10 Nov 17, 2013 07:36 AM

It a lot easier if you keep it up in that 14 position like so:

e|-------14-----------------------14---------17-14/12-14----------------|
B|----15----17-15-----15--------15----17-15-----------------------------|
G|-14--------------16--------14-----------------------------------------|
D|----------------------------------------------------------------------|
A|----------------------------------------------------------------------|
E|----------------------------------------------------------------------|

0 reply
ynnodnortep 110 Mar 30, 2014 07:28 PM

I agree with Josay-uh.

guest
Wanna post a correction for this tab? Suggest correction