Oops, an error
Loading. Please wait.

Im Born To Run chords

4,511 views 81 this week
2 commentsread comments
1 2 3 4 5
x 13
add to favorites
×
Save as Personal and add changes to this tab that will be seen only by you. Learn more ›
×
You can save this tab as Personal to edit and correct it or add notes. All changes will be seen only by you. Learn more »
launch autoscroll
font size
0
reset
transpose
0
reset
display chords
guitar tuner
edit
Autoscroll
slow
fast
+/-
esc
set tempo
stop
Strumming
There is no strumming pattern for this song yet. and get +5 IQ
American Authors - I'm Born To Run

Standard Tuning, Capo 3

[Intro/Verse]

e|---------------------------------------------------------------------------|
B|---------------------5---5---5---5-----------------------------------------|
G|----5---5---5---5--5---5---5---5-----4---4---4---4-----5---5---5---5-------|
D|--7---7---7---7---------------------5---5---5---5----7---7---7---7---------|
A|---------------------------------------------------------------------------|
E|---------------------------------------------------------------------------|


[Verse 1]

e|---------------------------------------------------------------------------|
B|---------------------5---5---5---5-----------------------------------------|
G|----5---5---5---5--5---5---5---5-----4---4---4---4-----5---5---5---5-------|
D|--7---7---7---7---------------------5---5---5---5----7---7---7---7---------|
A|---------------------------------------------------------------------------|
E|---------------------------------------------------------------------------|

Am             C
I'm born to run down rocky cliffs
Em             F
Give me grace, bury my sins
Am             C
Shattered glass and black holes
Em                 F
Can't hold me back from where I need to go
Am          C
Yellow hills and valleys deep
Em               F
I watch them move under my feet
Am             C
Stranger things have come and gone
Em              F
To see the world and take the throne


[Pre-chorus]

N.C.
Don't hold back
Oh, I won't hold back


[Chorus]

           Am                    C
I'm gonna live my life like I'm gonna die young
          Em                     F
Like it's never enough, like I'm born to run
          Am                    C
I'm gonna spend my time like tomorrow won't come
       Em                   F
Do whatever I want like I'm born to run
            Am                 C
I wanna see Paris, I wanna see Tokyo
           Em                 F
I wanna be careless even if I break my bones
          Am                     C
I'm gonna live my life like I'm gonna die young
          Em                     F
Like it's never enough, like I'm born to run


[Verse 2]

e|---------------------------------------------------------------------------|
B|---------------------5---5---5---5-----------------------------------------|
G|----5---5---5---5--5---5---5---5-----4---4---4---4-----5---5---5---5-------|
D|--7---7---7---7---------------------5---5---5---5----7---7---7---7---------|
A|---------------------------------------------------------------------------|
E|---------------------------------------------------------------------------|

Am            C
A winding road where strangers meet
Em .            F
To feel the love of a warm drink
Am            C
My body moves, it's speaking loud
Em               F
Don't have to say what I'm thinking now


[Pre-chorus]

N.C.
Don't hold back
Oh, I won't hold back


[Chorus]

           Am                    C
I'm gonna live my life like I'm gonna die young
          Em                     F
Like it's never enough, like I'm born to run
          Am                    C
I'm gonna spend my time like tomorrow won't come
       Em                   F
Do whatever I want like I'm born to run
            Am                 C
I wanna see Paris, I wanna see Tokyo
           Em                 F
I wanna be careless even if I break my bones
          Am                     C
I'm gonna live my life like I'm gonna die young
          Em                     F
Like it's never enough, like I'm born to run


[Bridge]

Am                    C
All these things I've seen and done
  Em                    F
I live my life like I'm born to run
Am                    C
All these things I've seen and done
  Em                    F
I live my life like I'm born to run
Am                    C
All these things I've seen and done
  Em                    F
I live my life like I'm born to run


[Final chorus]
(for the first part play the intro)

           Am                    C
I'm gonna live my life like I'm gonna die young
          Em                     F
Like it's never enough, like I'm born to run
          Am                    C
I'm gonna spend my time like tomorrow won't come
       Em                   F
Do whatever I want like I'm born to run
            Am                 C
I wanna see Paris, I wanna see Tokyo
           Em                 F
I wanna be careless even if I break my bones
          Am                     C
I'm gonna live my life like I'm gonna die young
          Em                     F
Like it's never enough, like I'm born to run 
Suggest correction
Creating personal tab
Creating personal tab
You can edit any tab online and save it as your Personal.

You can edit, replace or remove any tab part or add personal notes – all changes will be seen only by you.

Personal tabs can be accessed anytime from any device, even offline.
Learn more »
comments
print report bad tab
2 comments total.
+1 reply
hugs1991 10 May 13, 2017 04:21 PM

Brilliant tab. Sounds amazing!

0 reply
lucasfreitasanjos 10 Jun 08, 2017 11:38 AM

And Dm , F, Am , C does sound better in the verse ?

guest
You may want to rate the tab now too:
select rating
Wanna post a correction for this tab? Suggest correction