Oops, an error
Loading. Please wait.

Radio Tab

212 views 1 this week
1 commentread comment
1 2 3 4 5
please rate
add to favorites
launch autoscroll
font size
0
reset
how to read this tab
guitar tuner
Autoscroll
slow
fast
+/-
esc
set tempo
stop
Help us to improve Ultimate-Guitar.com Take our survey!
×
Author
-----------------------------------------------------------------------
                             Radio – American Eyes                       
-----------------------------------------------------------------------
Tabbed by:Meximan
Email:Madar89@aol.com

Tuning:Standard
| /  slide up
| \  slide down
| h  hammer-on
| p  pull-off
| ~  vibrato
| +  Half-mute note
| x  Mute note
  b  bend note
  .  Palm Mute
|-----------------------------------------------------------------|
|RECENTLY UPDATED: i updated the solo...just the fast part though.|
|the solo requires you to use down and up strokes to get the speed|
|it takes some practive if your a beginner but keep at it you'll  | 
|get it.                                                          |
|-----------------------------------------------------------------| 

Rhythm Guitar
Intro/Pre-verse
e|--------------------------------------------------------------------|
B|--------------------------------------------------------------------|
G|-999-999-888-9-8--999-999-11-9-8-9--999-9-11-13-11-6-6-6666-4-4-4444|
D|-999-999-888-9-8--999-999-11-9-8-9--999-9-11-13-11-6-6-6666-4-4-4444|
A|-777-777-666-7-6--777-777-9--7-6-7--777-7-9--11-9--4-4-4444-2-2-2222|
E|--------------------------------------------------------------------|

Verse
e|--------------------------------------------------------------------|
B|--------------------------------------------------------------------|
G|-999-999-999-999--666-666-666-666--999-999-9-11-13-11-6-6-6666-44444|
D|-999-999-999-999--666-666-666-666--999-999-9-11-13-11-6-6-6666-44444|
A|-777-777-777-777--444-444-444-444--777-777-7-9--11-9--4-4-4444-22222|
E|--------------------------------------------------------------------|

Pre-Chorus
e|--------------------------------------------------------------------|
B|--------------------------------------------------------------------|
G|-2-2-222-2222-2-2-4-4-444-4444-4-4-7-7-777-7777-777-6-6-666-666-6666|
D|-2-2-222-2222-2-2-4-4-444-4444-4-4-7-7-777-7777-777-6-6-666-666-6666|
A|-0-0-000-0000-0-0-2-2-222-2222-2-2-5-5-555-5555-555-4-4-444-444-4444|
E|--------------------------------------------------------------------|
   + + +++ ++++ + + + + +++ ++++ + +
  
Chorus (11’s not 1’s)
e|--------------------------------------------------------------------|
B|--------------------------------------------------------------------|
G|-11-11-111111-11-11-6-6-666-6666-4-4-444-4444-----------------------|
D|-11-11-111111-11-11-6-6-666-6666-4-4-444-4444-4-4-444-4444----------|
A|-9--9--9-9-9--9--9--4-4-444-4444-2-2-222-2222-4-4-444-4444----------|
E|----------------------------------------------2-2-222-2222----------|








Outro
e|--------------------------------------------------------------------|
B|--------------------------------------------------------------------|
G|-11--11-11-11-6--4--4-4-4-11~---------------------------------------|
D|-11--11-11-11-6--4--4-4-4-11~---------------------------------------|
A|-9---9--9--9--4--2--2-2-2-9-~---------------------------------------|
E|--------------------------------------------------------------------|

Lead Guitar
Verse
e|--------------------------------------------------------------------|
B|--------------------------------------------------------------------|
G|-999-999-999-999--666-666-666-666--999-999-9-11-13-11-6-6-6666-44444|
D|-999-999-999-999--666-666-666-666--999-999-9-11-13-11-6-6-6666-44444|
A|-777-777-777-777--444-444-444-444--777-777-7-9--11-9--4-4-4444-22222|
E|--------------------------------------------------------------------|
Pre-Chorus (starts when rhythm stops the half-mute)&(those are 10’s not 1’s and 0’s)
e|-10-10-10-101010-10101010-10-10-10-9-9-999-9999-999-----------------|
B|--------------------------------------------------------------------|
G|--------------------------------------------------------------------|
D|--------------------------------------------------------------------|
A|--------------------------------------------------------------------|
E|--------------------------------------------------------------------|
Chorus
e|-12-7-545454-0-12-7-5-4-5-5-7-12-7--12-7-12-7-7-12-12-7-(x2)--------|
B|--------------------------------------------------------------------|
G|--------------------------------------------------------------------|
D|--------------------------------------------------------------------|
A|--------------------------------------------------------------------|
E|--------------------------------------------------------------------|
Solo
e|-12-7-545454-7-12-7-7/141414141414|141311-----|1414-141414-14-14(x4)|
B|----------------------------------|------141211|--------------------|
G|-----------------------------------\---------/----------------------|
D|------------------------------------\-------/-----------------------|
A|-------------------------------------\-----/------------------------|
E|--------------------------------------\---/-------------------------|
Verse 2                                  x4
e|-12-12-12-12-12-12-12-7-7-7-7-7-7-7-5-5-5-5-5-5-5-0-0-0-0-0-0-0---|
B|------------------------------------------------------------------|
G|------------------------------------------------------------------|x2 
D|------------------------------------------------------------------|
A|------------------------------------------------------------------|
E|------------------------------------------------------------------|
      .  .     .  .  .    . .  . . .    . .   . . .   . .   . . .

e|-12-12-12-12-12-12-12-7-7-7-7-7-7-7-5-5-5-5-5-5-5-0-0-0-0-0-0-0-----|
B|--------------------------------------------------------------------|
G|--------------------------------------------------------------------|
D|--------------------------------------------------------------------|
A|--------------------------------------------------------------------|
E|--------------------------------------------------------------------|

e|-12-12-12-12-12-12-12-7-7-7-7-7-7-7-14-14-14-14-14-14-14-12-12-12-12|
B|--------------------------------------------------------------------|
G|--------------------------------------------------------------------|
D|--------------------------------------------------------------------|
A|--------------------------------------------------------------------|
E|--------------------------------------------------------------------|

e|-12-12-12-----------------------------------------------------------|
B|--------------------------------------------------------------------|
G|--------------------------------------------------------------------|
D|--------------------------------------------------------------------|
A|--------------------------------------------------------------------|
E|--------------------------------------------------------------------|

Song Structure:
Intro
Verse
Pre-Chorus
Chorus
Pre-verse
Verse
Pre-Chorus
Chorus x2
Solo (same as chorus for Rhythm Guitar)
Interlude (same and chorus for Rhythm Guitar but Palm Muted)
Verse 2 (same as chorus for Rhythm Guitar)
Chorus
Outro
 
This is my first tab ever and I’ve only been playing for about 7 months so if it’s not
right...you’re gonna have to bear with me. Email address is at the top so if you have
any questions, comments, or corrections please don’t hesitate. O and I know the solo
is off so help me out with that. 
For More Information about American Eyes, Please visit their website at 
www.Americaneyesmusic.com
=======================================================================

Suggest correction
What's this?
You can suggest a correction to this tab. Community and Mods will review your correction and vote to approve or reject it.
comments
We did not receive enough feedback on this tab! Please rate:
print report bad tab
1 2 3 4 5
1 comment total.
0 reply
Green Day5204 19 wrote on March 12 2006, 12:30 pm

Good tab for a good band

guest
You may want to rate the tab now too:
select rating
Please do not post tabs as comments. Select "correction" instead!