Oops, an error
Loading. Please wait.

Five Silent Miles Tab

version 1
version 1

Whole song

  • Changed the third chord in the second guitar. It s... Show more
6,222 views 18 this week
4 commentsread comments
1 2 3 4 5
accurate
x 3
add to favorites
launch autoscroll
font size
0
reset
how to read this tab
guitar tuner
Autoscroll
slow
fast
+/-
esc
set tempo
stop
Help us to improve Ultimate-Guitar.com Take our survey!
×
[riff 1] this may not be the exact picking but it's the chord
e|--7-7-------7-------7------7-------7----7---7---7--7---7---7----7----|
B|------10--------10------10-----10-----10-----10-----10---10---10-----|
G|---------9----9-------9------9-------9----9-------9-----9----9-------|
D|---------------------------------------------------------------------|
A|---------------------------------------------------------------------|
E|---------------------------------------------------------------------|

[riff 2]
e|--4---------------------------|
B|--5--0---------5-2--------5---|
G|--4--2---1-2-4---2--1-2-4-----|
D|--0--2-----------2------------|
A|--0--0-----------0------------|
E|------------------------------|

[riff 3]
e|----9-------9-------9------9-------9----9---9---9--9---9---9----9----|
B|------10--------10------10-----10-----10-----10-----10---10---10-----|
G|---------9----9-------9------9-------9----9-------9-----9----9-------|
D|---------------------------------------------------------------------|
A|---------------------------------------------------------------------|
E|---------------------------------------------------------------------|

e|----12-------12-------12------12--12---12--12--12-12---12--12---12---|
B|------10--------10------10-----10-----10-----10-----10---10---10-----|
G|---------9----9-------9------9-------9----9-------9-----9----9-------|
D|----12-------12-------12------2--------12---12----12-------12--------|
A|---------------------------------------------------------------------|
E|---------------------------------------------------------------------|

[riff 4]
e|---------------------------------------------0--------------0-----4------|
B|------0h2----------0h2-------2-3-2-0-------0h2----------0h2---------5----|
G|----2------------2-------------------2----2------------2--------------4--|
D|--0------------0------------------------0------------0-------------------|
A|----------0--2---------0h2-4------------------0--2------------0h2--------|
E|-------------------------------------------------------------------------|

[riff 5]
e|----12-------12-------12------12--12---12--12--12-12---12--12---12---|
B|------10--------10------10-----10-----10-----10-----10---10-----10---|
G|---------9----9-------9------9-------9----9-------9-----9----9--9----|
D|----12-------12-------12------2--------12---12----12-------12--------|
A|---------------------------------------------------------------------|
E|---------------------------------------------------------------------|
Suggest correction
Give kudos to tab author, rate the tab!
1 2 3 4 5
comments
print report bad tab
4 comments total. Showing first comments.
0 reply
CrashedTheShow3 167 wrote on August 29 2007, 09:23 pm

I think this might be the actual way he plays the intro

e|-----0--------0-------0-------|
B|--12----12-10---12-10---------|
G|------------------------------|
D|------------------------------|
A|------------------------------|
E|------------------------------|

But it sounds the same either way. Good show comrade. five stars

0 reply
CrashedTheShow3 167 wrote on August 29 2007, 09:26 pm

Oh and I actually think the first chord in riff 2 is

e|----0----|
B|----0----|
G|----13---|
D|----14---|
A|----0----|
E|---------|

0 reply
mheady 219 wrote on June 21 2008, 11:05 pm

r.i.p. mike kinsellas best work to date.

guest
You may want to rate the tab now too:
select rating
Please do not post tabs as comments. Select "correction" instead!