Oops, an error
Loading. Please wait.

Five Silent Miles Tab

version 2
version 2

Whole song

  • Changed the third chord in the second guitar. It s... Show more
1,570 views 3 this week
2 commentsread comments
1 2 3 4 5
3 more votes to show rating
add to favorites
launch autoscroll
font size
0
reset
how to read this tab
guitar tuner
Autoscroll
slow
fast
+/-
esc
set tempo
stop
Help us to improve Ultimate-Guitar.com Take our survey!
×
Author
American Football - Five Silent Miles
Track #3 - American Football [EP] (1998) - 4:11
5/4 - Standard tunning
Tabbed by sosocial [22.04.11]


0:00 - 0:09
[Riff 1]
e|-7----7------7-------7----------|
B|--------10-----10------10-------|
G|---9-------9------9-------------|
D|--------------------------------|
A|--------------------------------|
E|--------------------------------|

0:09 - 1:33
[Riff 2]
(Played with Riff 1)
e|--0~----0~----------0--0~---------0---|
B|--9~----2~-------------5~-------------|
G|--9~----2~---1/2h4-----6~---1/2h4-----|
D|--7~----2~-------------4~-------------|
A|--------0~-------------0~-------------|
E|--------------------------------------|

1:38 - 1:56
[Riff 3]
e|-9----9------9-------9----------|
B|--------10-----10------10-------|
G|---9-------9------9-------------|
D|--------------------------------|
A|--------------------------------|
E|--------------------------------|

1:57 - 2:05
[Riff 4]
e|-12----12-------12-------12-----|
B|----------14-------14-------14--|
G|----9--------9--------9---------|
D|--------------------------------|
A|--------------------------------|
E|--------------------------------|

2:06 - 2:15
[Riff 3]
e|-9----9------9-------9----------|
B|--------10-----10------10-------|
G|---9-------9------9-------------|
D|--------------------------------|
A|--------------------------------|
E|--------------------------------|

2:15 - 2:34
[Riff 4]
e|-12----12-------12-------12-----|
B|----------14-------14-------14--|
G|----9--------9--------9---------|
D|--------------------------------|
A|--------------------------------|
E|--------------------------------|

2:35 - 2:43
[Riff 3]
e|-9----9------9-------9----------|
B|--------10-----10------10-------|
G|---9-------9------9-------------|
D|--------------------------------|
A|--------------------------------|
E|--------------------------------|

2:44 - 3:02
[Riff 5]
e|-10--10------10-------10--------|
B|--------10------10-------10-----|
G|---9-------9-------9------------|
D|--------------------------------|
A|--------------------------------|
E|--------------------------------|
played with
[Riff 6]
2:44 - 4:10 (played until the end over the next riffs)
e|-5----9------9-------9----------|
B|--------7------7-------7--------|
G|---9------9------9--------------|
D|--------------------------------|
A|--------------------------------|
E|--------------------------------|

[Riff 7]
3:03 - 3:21 (repeat x2)
e|------------------------------------------------------|
B|-----0h2------------------0h2-----------2-3-2-0-------|
G|---2--------------------2-----------------------------|
D|-0-----------------------------------------------7/---|
A|-------------0--2---------------0h2h4-----------------|
E|--------------------2---------------------------------|

[Riff 8]
3:21 - 3:30
e|---------0--------------------0----------------0-----|
B|-----0h2------------------0h2----------------0---0---|
G|---2--------------------2------------2---1h2---------|
D|-0-------------------------------------2-------------|
A|-------------0--2------------------------------------|
E|--------------------2-------------2------------------|

[Riff 9]
3:31 - 3:40
e|---------0--------------------0----------------------|
B|-----0h2------------------0h2----------2-3-2-0-------|
G|---2--------------------2----------------------------|
D|-0-----------------------------------------------7/--|
A|-------------0--2---------------0h2h4----------------|
E|--------------------2--------------------------------|

[Riff 10]
3:40 - 3:49
e|----------------------------------|
B|-----0h2~-----------0~------------|
G|---2--------------2---------------|
D|-0--------------4-----------------|
A|--------------4-------------------|
E|----------------------------------|


[Riff 11]
3:50 - 4:11 (played until the end)
e|-12----12--------12--------12----|
B|----------14--------14--------14-|
G|----14-------14--------14--------|
D|---------------------------------|
A|---------------------------------|
E|---------------------------------|
played with [Riff 6]

4:06 - 4:09 (last time)
[Riff 11]:
e|-12----12--------12--------12----12-|
B|----------14--------14--------14----|
G|----14-------14--------14-----------|
D|------------------------------------|
A|------------------------------------|
E|------------------------------------|

and [Riff 12]:
e|-5----9------9-------9----5------|
B|--------7------7-------7---------|
G|---9------9------9---------------|
D|---------------------------------|
A|---------------------------------|
E|---------------------------------|
(played together)
Suggest correction
Give kudos to tab author, rate the tab!
1 2 3 4 5
comments
print report bad tab
2 comments total.
0 reply
sosocial 30 May 12, 2011 11:18 AM

A little correction of my own...Riff 2 is one note off..

0:09 - 1:33
[Riff 2]
(Played with Riff 1)
e|--0~----0~----------0--0~---------0---|
B|--9~----2~-------------5~-------------|
G|--9~----2~-------4-----6~-------4-----|
D|--7~----2~---4h7-------4~---4h7-------|
A|--------0~-------------0~-------------|
E|--------------------------------------|

Should be correct right now.
Would appreciate if any mod could change this in the tab.

0 reply
sosocial 30 May 12, 2011 11:26 AM

0:09 - 1:33
[Riff 2]
(Played with Riff 1)
e|--0~----0~----------0--0~-------------|
B|--9~----2~-------------5~---------0---|
G|--9~----2~-------4-----6~-------4-----|
D|--7~----2~---4h6-------4~---4h7-------|
A|--------0~-------------0~-------------|
E|--------------------------------------|

*Now it's right.

guest
You may want to rate the tab now too:
select rating
Wanna post a correction for this tab? Suggest correction