Oops, an error
Loading. Please wait.

For Sure tab

version 1
version 1

Whole song

Interactive

15,732 views 36 this week
2 commentsread comments
1 2 3 4 5
x 8
add to favorites
×
Save as Personal and add changes to this tab that will be seen only by you. Learn more ›
×
You can save this tab as Personal to edit and correct it or add notes. All changes will be seen only by you. Learn more »
launch autoscroll
font size
0
reset
how to read this tab
guitar tuner
edit
Autoscroll
slow
fast
+/-
esc
set tempo
stop
Author
American Football
"For Sure"

  RIFF 1
E |--------------------|
C |-------------4/2-0--|
G |--------------------|
C |--5-4-5-/7-0--------|
A#|--------------------|
F |-0------------------|
  REPEAT 16x

  RIFF 2
E |--------------------|
C |--------4/2-0-------|
G |--------------------|
C |--7/5-0-------------|
A#|------------2-------|
F |-0------------------|
  REPEAT 4x


RIFF 1 - 6x
RIFF 2 - 4x


  RIFF 3
E |--------------------|
C |--------0-----------|
G |------2---0-2-------|
C |--7/5---------------|
A#|--------------------|
F |-0------------------|
  REPEAT 12x


RIFF 3 - 12x
RIFF 2 - 4x
RIFF 1 - 6x
RIFF 2 - 4x
RIFF 1 - 4x
RIFF 3 - 4x

final chord
E |-0-|
C |-0-|
G |-0-|
C |-4-|
A#|-2-|
F |-0-|


email: modernrocko@gmail.com
aim:   modernrocko
yahoo: modernmusty
msn:   modernrocko@hotmail.com

            
            
Suggest correction
Creating personal tab
Creating personal tab
You can edit any tab online and save it as your Personal.

You can edit, replace or remove any tab part or add personal notes – all changes will be seen only by you.

Personal tabs can be accessed anytime from any device, even offline.
Learn more »
comments
print report bad tab
2 comments total.
+1 reply
NubbieWubbie 10 Aug 03, 2017 05:35 PM, edited at 09:40 pm

Riff 1 for standard tuning
E |--------------------|
B |-------------5/3-1--|
G |--------------------|
D |--3-2-3-/5----------|
A |------------3-------|
E |-1------------------|

+1 reply
NubbieWubbie 10 Aug 03, 2017 05:48 PM

Riff 2:
E |--------------------|
B |--------5/3-1-------|
G |--------------------|
D |--5/3---------------|
A |-------3----2-------|
E |-1------------------|

Riff 3:
E |--------------------|
B |--------1-----------|
G |------2---0-2-------|
D |--5/3---------------|
A |--------------------|
E |-1------------------|

Final Chord:
E |-0-|
B |-1-|
G |-0-|
D |-2-|
A |-3-|
E |-1-|

guest
You may want to rate the tab now too:
select rating
Wanna post a correction for this tab? Suggest correction