Oops, an error
Loading. Please wait.

Honestly Tab

version 2
version 2

Whole song

4,540 views 3 this week
no commentswrite comment
1 2 3 4 5
accurate
x 3
add to favorites
launch autoscroll
font size
0
reset
how to read this tab
guitar tuner
Tab Pro tools
  • play this tab
  • loop segment
  • change instrument
  • show fretboard
  • metronome
×
Best way to learn
"Honestly"
Autoscroll
slow
fast
+/-
esc
set tempo
stop
Contributor
This is a great song that is pretty easy to learn. This is most of the song up to about 
of the song, where thereafter there is a repeating riff that i have not figured out yet, 
will, hopefully soon.

Standard Tuning. EBGDAE


E|-------------------------------------------------------------------------|
B|-------------------------------------------------------------------------|
G|-------------------------------------------------------------------------|
D|-------------------------------------------------------------------------|
A|-----7--5--4-----0--2--4-----------7--5--4-----0--2--4-------------------|
E|--0-----------4-----------------0-----------4----------------------------|

E|-------------------------------------------------------------------------|
B|-------------------------------------------------------------------------|
G|-------------------------------------------------------------------------|
D|-------------------------------------------------------------------------|
A|-----7-7-5-5-4-4-------0-0-2-2-4-4--------7-7-5-5-4-4-------0-0-2-2-4-4--|
E|-0-0--------------4-4-----------------0-0---------------4-4--------------|

E|-------------------------------------------------------------------------|
B|-------------------------------------------------------------------------|
G|-------------------------------------------------------------------------|
D|-------------------------------------------------------------------------|
A|-----7-7-5-5-4-4-------0-0-2-2-4-4--------7-7-5-5-4-4-------0-0-2-2-4-4--|
E|-0-0--------------4-4-----------------0-0---------------4-4--------------|

E|-------------------------------------------------------------------------|
B|-------------------------------------------------------------------------|
G|-------------------------------------------------------------------------|
D|-------------------------------------------------------------------------|
A|------0-0-2-2-4-4---------0-0-2-2-4-4----------0-0-2-2-4-4---------------|
E|-0-0-----------------2-2------------------0-0----------------------------|

E|-------------------------------------------------------------------------|
B|-------------------------------------------------------------------------|
G|-------------------------------------------------------------------------|
D|-------------------------------------------------------------------------|
A|-----7-7-5-5-4-4-------0-0-2-2-4-4--------7-7-5-5-4-4-------0-0-2-2-4-4--|
E|-0-0--------------4-4-----------------0-0---------------4-4--------------|

E|-------------------------------------------------------------------------|
B|-------------------------------------------------------------------------|
G|-------------------------------------------------------------------------|
D|-------------------------------------------------------------------------|
A|-----7-7-5-5-4-4-------0-0-2-2-4-4--------7-7-5-5-4-4-------0-0-2-2-4-4--|
E|-0-0--------------4-4-----------------0-0---------------4-4--------------|

E|-------------------------------------------------------------------------|
B|-------------------------------------------------------------------------|
G|-------------------------------------------------------------------------|
D|-------------------------------------------------------------------------|
A|-------0-0-2-2-4-4--------0-0-2-2-4-4----------0-0-2-2-4-4---------------|
E|--0-0-----------------2-2------------------0-0---------------------------|

E|-2-0~--------------2-0~---------------2-0~----------------2-0~-----------|
B|-------0-2-0---0---------0-2-0---0---------0-2-0----0----------0h2p0-----|
G|-------------2-----------------2------------------2-------------------2--|
D|-------------------------------------------------------------------------|
A|-------------------------------------------------------------------------|
E|-------------------------------------------------------------------------|

E|-2-0~--------------2-0~------------2-0~-------------2-0~-------------0~--|
B|------0-2-0---0---------0-2-0---0-------0-2-0---0--------0-2-3-2~--------|
G|------------2-----------------2---------------2-------------------2~-----|
D|-------------------------------------------------------------------------|
A|-------------------------------------------------------------------------|
E|-------------------------------------------------------------------------|

E|-------------------------------------------------------------------------|
B|-------------------------------------------------------------------------|
G|-------------------------------------------------------------------------|
D|-------------------------------------------------------------------------|
A|-----7-7-5-5-4-4-------0-0-2-2-4-4--------7-7-5-5-4-4-------0-0-2-2-4-4--|
E|-0-0--------------4-4-----------------0-0---------------4-4--------------|

E|-------------------------------------------------------------------------|
B|-------------------------------------------------------------------------|
G|-------------------------------------------------------------------------|
D|-------------------------------------------------------------------------|
A|-----7-7-5-5-4-4-------0-0-2-2-4-4--------7-7-5-5-4-4-------0-0-2-2-4-4--|
E|-0-0--------------4-4-----------------0-0---------------4-4--------------|

E|-------------------------------------------------------------------------|
B|-------------------------------------------------------------------------|
G|-------------------------------------------------------------------------|
D|-------------------------------------------------------------------------|
A|--------0-0-2-2-4-4---------0-0-2-2-4-4----------0-0-2-2-4-4-------------|
E|---0-0-----------------2-2-----------------0-0---------------------------|

E|-------------------------------------------------------------------------|
B|-------------------------------------------------------------------------|
G|-------------------------------------------------------------------------|
D|-------------------------------------------------------------------------|
A|-----7-7-5-5-4-4-------0-0-2-2-4-4--------7-7-5-5-4-4-------0-0-2-2-4-4--|
E|-0-0--------------4-4-----------------0-0---------------4-4--------------|

E|-------------------------------------------------------------------------|
B|-------------------------------------------------------------------------|
G|-------------------------------------------------------------------------|
D|-------------------------------------------------------------------------|
A|-----7-7-5-5-4-4-------0-0-2-2-4-4--------7-7-5-5-4-4-------0-0-2-2-4-4--|
E|-0-0--------------4-4-----------------0-0---------------4-4--------------|

E|-------------------------------------------------------------------------|
B|-------------------------------------------------------------------------|
G|-------------------------------------------------------------------------|
D|-------------------------------------------------------------------------|
A|---------0-0-2-2-4-4----------0-0-2-2-4-4-----------0-0-2-2-4-4----------|
E|----0-0------------------2-2-------------------0-0-----------------------|

E|--2-0--------------------------------------------------------------------|
B|-------0-2-0---0-2-------------------------------------------------------|
G|-------------2-----------------------------------------------------------|
D|-------------------------------------------------------------------------|
A|-------------------------------------------------------------------------|
E|-------------------------------------------------------------------------|

/ = slide up
\ = slide down
h = hammer on
p = pull off
b = bend
r = release
x = muted string
t = tap (with finger or pick)
~ = vibrato
comments
We did not receive enough feedback on this tab! Please rate:
print report bad tab
1 2 3 4 5
I want to post or [tab]
guest
You may want to rate the tab now too:
select rating
Please do not post tabs as comments. Select "correction" instead!