Oops, an error
Loading. Please wait.

Ill See You When Were Both Not So Emotional bass

2,349 views 9 this week
no commentswrite comment
1 2 3 4 5
x 4
add to favorites
×
Save as Personal and add changes to this tab that will be seen only by you. Learn more ›
×
You can save this tab as Personal to edit and correct it or add notes. All changes will be seen only by you. Learn more »
launch autoscroll
font size
0
reset
guitar tuner
edit
Autoscroll
slow
fast
+/-
esc
set tempo
stop
Author
-------------------------------------------------------------------------------
         I'LL SEE YOU WHEN WE'RE BOTH NOT SO EMOTIONAL - American Football
-------------------------------------------------------------------------------
Tabbed by: Joe Owens
E-mail: joeowens994@hotmail.com
Tuning: EADG
Video: http://www.youtube.com/watch?v=y_KlVnRevdY

Just discovered this band but as always with the Kinsella's, it sounds 
amazing. This song in particular stuck with me so I'm tabbing it out.
The tab should give you a good feel for the rhythm but listen to the song and
it will show you how it's done.

EDIT: Updated an error in the chorus, added a part which I missed last time.

Verse:
                         x2                       x2
G|------------------------|------------------------|
D|------------------------|------------------------|
A|--6-6-6-6--6-6-6-6--6-6-|--7-7-7-7--7-7-7-7--7-7-|
E|------------------------|------------------------|

                         x2                       x2
G|------------------------|------------------------|
D|------------------------|------------------------|
A|--9-9-9-9--9-9-9-9--9-9-|--7-7-7-7--7-7-7-7--7-7-|
E|------------------------|------------------------|

                         x2                       x2
G|------------------------|--4-4-4-4--4-4-4-4--4-4-|
D|--6-6-6-6--6-6-6-6--6-6-|------------------------|
A|------------------------|------------------------|
E|------------------------|------------------------|

                         x2                       x2
G|------------------------|------------------------|
D|------------------------|------------------------|
A|-9--9--9--9--9--9--9--9-|-7--7--7--7--7--7--7--7-|
E|------------------------|------------------------|


Chorus:

G|------------------------|
D|------------------------|
A|------------------------|
E|-7\---------------------|

Then there's a few bars with out bass, come back in after the line
"with inherent"

G|------------------------|------------------------|
D|------------------------|------------------------|
A|------------------------|-4----------------------|
E|-7----------------------|------------------------|
                         x4
G|------------------------|
D|-4h6-6-6-6--4h6-6-6--6--|
A|------------------------|
E|------------------------|
                         x2                       
G|------------------------|
D|------------------------|
A|-7-7--7-7--7-7--7-7--7--|
E|------------------------|

G|-9--8-------------------|-----4------------------|
D|-------9----------------|--------4h6-------------|
A|------------------------|--7---------------------|
E|------------------------|------------------------|

Verse: drum roll, then back to verse
                         x2                       x2
G|------------------------|------------------------|
D|------------------------|------------------------|
A|--6-6-6-6--6-6-6-6--6-6-|--7-7-7-7--7-7-7-7--7-7-|
E|------------------------|------------------------|

                         x2                       x2
G|------------------------|------------------------|
D|------------------------|------------------------|
A|--9-9-9-9--9-9-9-9--9-9-|--7-7-7-7--7-7-7-7--7-7-|
E|------------------------|------------------------|

                         x2                       x2
G|------------------------|--4-4-4-4--4-4-4-4--4-4-|
D|--6-6-6-6--6-6-6-6--6-6-|------------------------|
A|------------------------|------------------------|
E|------------------------|------------------------|

                         x2                       x2
G|------------------------|------------------------|
D|------------------------|------------------------|
A|-9--9--9--9--9--9--9--9-|-7--7--7--7--7--7--7--7-|
E|------------------------|------------------------|


Chorus:

G|------------------------|
D|------------------------|
A|------------------------|
E|-7\---------------------|

Same as last time, come back on
"with inherent"
G|------------------------|------------------------|
D|------------------------|------------------------|
A|------------------------|-4----------------------|
E|-7----------------------|------------------------|
                         x4
G|------------------------|
D|-4h6-6-6-6--4h6-6-6--6--|
A|------------------------|
E|------------------------|
                         x2                       
G|------------------------|
D|------------------------|
A|-7-7--7-7--7-7--7-7--7--|
E|------------------------|

G|-9--8-------------------|-----4------------------|
D|-------9----------------|--------4h6-------------|
A|------------------------|--7---------------------|
E|------------------------|------------------------|


Final: after a short guitar only part, bass comes in with drums and vocals
I've shortened it to make the tab neater, and it's easier to 
read.

G|------------|------------|------------|------------|
D|------------|------------|------------|------------|
A|-7----------|-6----------|------------|------------|
E|------------|------------|-9----------|-7----------|

G|------------|------------|------------|------------|
D|------------|------------|------------|------------|
A|-7----------|-6----------|------------|------------|
E|------------|------------|-9----------|-7----------|

G|------------|
D|------------|
A|-7----------|
E|------------|

That's it! Pretty breezy to play. Email me corrections if any are needed, otherwise enjoy!

            
            
Suggest correction
Creating personal tab
Creating personal tab
You can edit any tab online and save it as your Personal.

You can edit, replace or remove any tab part or add personal notes – all changes will be seen only by you.

Personal tabs can be accessed anytime from any device, even offline.
Learn more »
comments
print report bad tab
guest
You may want to rate the tab now too:
select rating
Wanna post a correction for this tab? Suggest correction