Oops, an error
Loading. Please wait.

Never Meant ukulele

version 1
version 1

Whole song

Interactive

610 views 6 this week
2 commentsread comments
1 2 3 4 5
2 more votes to show rating
add to favorites
×
Save as Personal and add changes to this tab that will be seen only by you. Learn more ›
×
You can save this tab as Personal to edit and correct it or add notes. All changes will be seen only by you. Learn more »
launch autoscroll
font size
0
reset
transpose
0
reset
display chords
guitar tuner
edit
Autoscroll
slow
fast
+/-
esc
set tempo
stop
Author
Difficulty
Strumming
There is no strumming pattern for this song yet. and get +5 IQ
-------------------------------------------------------------------------------
                             Never Meant - American Football
-------------------------------------------------------------------------------
Tabbed by: Jaden M.

Tuning: G C C E (You wont be able to play the song unless you tune to this)
Note: Be careful the C and E are tuned pretty tight so go easy on your chords
Note 2: I Pretty much copied this 
https://tabs.ultimate-guitar.com/a/american_football/never_meant_ver2_tab.htm so give him credits it just made
it easier to read on the uke
Note 3: I have only done the parts for the lead so there is no part 2

Part 1
A------------0----0------0----0---------0----|
E---4p2p0---0-0--0-0----0-0--0-0-------0-0---|
C-0------------------------------------------|
G--------0-2----4----5/7----9-----10/12------|

Part 3
A--------------------------------------------|
E--------------------------------------------|
C-9/12---12---------------12/9---------------|
G-----12---12--9h10p9h10p--------------------|

Part 4
A-------------------------------------------|
E-------------------------------------------|
C-------------------------------------------|
G-12--12/9--9--9/7--7--7/4--2--2/4--0-------|

p means lift off
x/y means slide up from x to y
h means hammer

            
            
Suggest correction
Creating personal tab
Creating personal tab
You can edit any tab online and save it as your Personal.

You can edit, replace or remove any tab part or add personal notes – all changes will be seen only by you.

Personal tabs can be accessed anytime from any device, even offline.
Learn more »
Give kudos to tab author, rate the tab!
1 2 3 4 5
comments
print report bad tab
2 comments total.
0 reply
iheartmaddiw 10 Jul 31, 2017 12:38 PM

I LITERALLY DOWNLOADED AND BOUGHT THIS APP JUST FOR AMERICAN FOOTBALL ON UKULELE YOU ARE A GODDAMN BLESSING

0 reply
PeterZak 10 Aug 03, 2017 08:27 PM

This is probably more helpful than the bible, u sir are a saint

guest
You may want to rate the tab now too:
select rating
Wanna post a correction for this tab? Suggest correction