Oops, an error
Loading. Please wait.

Never Meant Bass Tab

version 2
version 2

Whole song

  • Added explanations about the song, and revisions throughout the tab.

Interactive

5,385 views 12 this week
2 commentsread comments
1 2 3 4 5
x 3
add to favorites
launch autoscroll
font size
0
reset
guitar tuner
Autoscroll
slow
fast
+/-
esc
set tempo
stop
Help us to improve Ultimate-Guitar.com Take our survey!
×
Author
Difficulty
novice
American Football
Never Meant
Bass Tab

Tabbed By:
Hardskapunk


Intro: Bass enters at 0:31
  1 . . . 2 . . . 3 . . .
G ------------------------|
D -------------x7-----5---|
A -------3----------------|
E 1-----------------------|

1:12

G --------------------------------|
D --------------------------------|
A --------------------------------|
E 1-------------------------------|

1:31
  1 . . . 2 . . . 3 . . . 1 . . . 2 . . . 3 . . .
G ------------------------------------------------|
D 7-7--7--7--7--7--7--7---5-5--5--5--5--5--5--5---|
A ------------------------------------------------|
E ------------------------------------------------|

2:12
G --------------------------------|
D --------------------------------|
A 3-------------------------------|
E --------------------------------|

These are long (whole) notes:
G --------------------5--------------------------|
D 7-------7-------7-----------7-------7---5------|
A ----8-------8-----------8-------8-----------8--|
E -----------------------------------------------|  x2


Third time around goes like this (2:53); Just figure the timing.
G -----------|---------------------------|--------------------------|
D 7-------7--|10-12-15-14----------------|10-12-15-14---------------|
A ----8------|------------15-------------|------------15---10-------|
E -----------|---------------------------|--------------------------|
              This part 3x                Last (4th) time


Ending (3:25 to end) same as intro
  1 . . . 2 . . . 3 . . .
G ------------------------|
D -------------x7-----5---|
A -------3----------------|
E 1-----------------------|
Suggest correction
Give kudos to tab author, rate the tab!
1 2 3 4 5
comments
print report bad tab
2 comments total.
0 reply
jedikittycat 10 Mar 31, 2014 09:54 PM

sounds good, really simple.

0 reply
baklava151 158 Feb 10, 2015 03:15 PM

1 . . . 2 . . . 3 . . .
G ------------------------|
D 3-------5-----7-----5---|
A ------------------------|
E ------------------------|

Sounds better for the intro, good tab otherwise

guest
You may want to rate the tab now too:
select rating
Wanna post a correction for this tab? Suggest correction