Oops, an error
Loading. Please wait.

Never Meant Bass Tab

version 3
version 3

Whole song

  • Added explanations about the song, and revisions throughout the tab.

Interactive

25 views 6 this week
no commentswrite comment
1 2 3 4 5
3 more votes to show rating
add to favorites
launch autoscroll
font size
0
reset
guitar tuner
Autoscroll
slow
fast
+/-
esc
set tempo
stop
Help us to improve Ultimate-Guitar.com Take our survey!
×
Author
Difficulty
About this tab version
Added explanations about the song, and revisions throughout the tab. Was this info helpful? Yes No
-------------------------------------------------------------------------------
                            Never Meant - American Football
-------------------------------------------------------------------------------
Tabbed by: CatWithAMustach: (Bass Guitar I)


Most of this is based off a live performance here:
https://www.youtube.com/watch?v=R8zZaCd2WEU


They perform this song a half step down live.


All time queues are from the Official Music Video:
https://www.youtube.com/watch?v=_NfnXdXpjL0


When picking a string, play very close to the bridge of the body.


************************************
 x - Dead Note (Pick the string, with your fretboard hand muting the strings.
************************************

Bass Guitar I (Picked) - E Standard (EADG)
 
Intro - (0:34)
G|----------------------|
D|-3----5---x-7----5----|
A|----------------------| x8
E|----------------------|


Transition - (1:14)
G|----------------------|
D|-3--------------------|
A|----------------------| x4
E|----------------------|


Build-up - (1:34)
G|------------------------------------------------------|
D|-7-7--7--7--7--7--7--7--------------------------------|
A|------------------------10-10--10--10--10--10--10--10-| x4
E|------------------------------------------------------|

Then finish with:
G|----------|
D|----------|
A|-8--------|
E|----------|


Break - (1:34) Whole Notes
G|----------------------------------------------------------------|
D|-10---------7---------7----10---------7---------7---------------|
A|-------8---------8---------------8---------8---------10----8----|x2
E|----------------------------------------------------------------|  

Then finish with:
G|-----------------|
D|-10---------7----|
A|-------8---------|
E|-----------------|


Interlude - (3:01) Half Notes
G|-------------10----9-------------|
D|-10----12---------------7--------|
A|---------------------------------| x4
E|---------------------------------|  

Then finish with:
G|----------|
D|-5--------|
A|----------|
E|----------|


Outro - (3:28)
G|----------------------|
D|-3----5---x-7----5----|
A|----------------------| Play until it fades out.
E|----------------------|
Suggest correction
Give kudos to tab author, rate the tab!
1 2 3 4 5
comments
print report bad tab
guest
You may want to rate the tab now too:
select rating
Wanna post a correction for this tab? Suggest correction