Oops, an error
Loading. Please wait.

Never Meant Tab

version 4
version 4

Whole song

  • This tab uses the correct tuning that the song was originally written in.
  • Includes both guitars, with true tuning, with revisions from previous versions.

Interactive

52 views 9 this week
no commentswrite comment
1 2 3 4 5
2 more votes to show rating
add to favorites
launch autoscroll
font size
0
reset
how to read this tab
guitar tuner
Autoscroll
slow
fast
+/-
esc
set tempo
stop
Help us to improve Ultimate-Guitar.com Take our survey!
×
Author
Difficulty
About this tab version
Includes both guitars, with true tuning, with revisions from previous versions. Was this info helpful? Yes No
-------------------------------------------------------------------------------
                            Never Meant - American Football
-------------------------------------------------------------------------------
Tabbed by: CatWithAMustach: (Guitar I)
           Everynamewastaken123: (Guitar II) with revisions

Just to make this an all complete tab, I decided to use some of the tablature
from a different version from the website.


Most of this was done pretty quickly by looking at the live version of the song of the song here:
https://www.youtube.com/watch?v=R8zZaCd2WEU 


During live performances, the band usually plays a half step down from their normal tuning.


All timing queues are from the music video: 
https://www.youtube.com/watch?v=_NfnXdXpjL0


Instruments:
Guitar I (Lead Guitar) - FACGCE
Guitar II (Rhythm Guitar) - FCCACF


************************************
 /    Slide up
 \    Slide down
 /(x) Legato slide, don’t pick the note
(x)   Handshape, don’t play these notes, but put your fingers along these frets
************************************

Guitar I

Intro (0:00): (Clean)
e|---------------0-------0-----------0-------0-------------0---|
C|---4p2p0-----0---0---0---0-------0---0---0---0---------0---0-|
G|---------0-2-------4-------5/(7)-------9-------10/(12)-------|
C|-0-----------------------------------------------------------| x24
A|-------------------------------------------------------------|
F|-------------------------------------------------------------|
Let ring all the open notes while you slide through the riff.


Transition (2:16): (Clean)
e|---------15-------15----------------------|
C|---------------14-----16h17-16-16---------|
G|-14/(16)-----0--------------------17/(14)-|
C|------------------------------------------| x13
A|------------------------------------------|
F|------------------------------------------|
Play the open G very softly, and don’t let it ring.

Then play only half of the transition:
e|---------15-------15-|
C|---------------14----|
G|-14/(16)-----0-------|
C|---------------------| 
A|---------------------|
F|---------------------|


Break (3:01): (Clean)
e|----------------------------------------------------------|
C|----------------------------------------------------------|
G|-17-17\(14)--14-14\(12)--12-12\(9)--9-9\(7)--7-7/(9)-5----|
C|----------------------------------------------------------| x4
A|----------------------------------------------------------|
F|----------------------------------------------------------|


Outro (3:28): (Clean)
e|---------------0-------0-----------0-------0-------------0---|
C|---4p2p0-----0---0---0---0-------0---0---0---0---------0---0-|
G|---------0-2-------4-------5/(7)-------9-------10/(12)-------|
C|-0-----------------------------------------------------------| Play until it fades out.
A|-------------------------------------------------------------|
F|-------------------------------------------------------------|


Guitar II

Intro (0:34): (Clean)
f|-(2)----2------|-(2)----2----|--------0------|-(2)--------|
C|-(4)------4----|-(2)------2--|-(4)------4----|-(4)----4---|
A|-(3)--------3--|-(3)---------|-(3)--------3--|-(3)--3---3-|
C|---------------|-(2)---------|---------------|-(2)--------| x8
C|---------------|-(2)---------|---------------|-(2)--------|
F|--0------------|--2----------|--4------------|--2---------|


Interlude (1:14): (Clean)
f|-2--------2--------2--------2--------|
C|-4--------4--------4--------4--------|
A|-3--------3--------3--------3--------|
C|-0--------0--------0--------0--------|
C|-0--------0--------0--------0--------|
F|-0--------0--------0--------0--------|
Play these chords through slowly.


Transition (1:34): (Clean)
F|-(2)--2-----------------2-----------------2----------------2-----------|
C|-(4)-----------4-----------------4-----------------4----------------4--|
A|-(3)--------3--------3--------3--------3--------3--------3-------3-----|
C|-(2)-------------------------------------------------------------------|
C|-(2)-------------------------------------------------------------------|
F|--4------4--------4--------4--------4--------4--------4-------4--------|

F|-(2)--2-----------------2-----------------2----------------2-----------|
C|-(2)-----------2-----------------2-----------------2----------------2--|
A|-(3)--------3--------3--------3--------3--------3--------3-------3-----|
C|-(2)-------------------------------------------------------------------| Play this
C|-(2)-------------------------------------------------------------------| entire section
F|--2------2--------2--------2--------2--------2--------2-------2--------| 4 times

Then finish with this:
f|------------0-----|
C|-(4)------4---4---|
A|-(3)----3-------3-|
C|------0-----------|
C|------------------|
F|--0---------------|


Break (2:16): (Clean)   Let all notes ring.
f|-----------------|-----------------|------------0-----|-----------------|
C|-----------------|-----------------|-(4)------4---4---|-----------------|
A|-(7)----7---7-5--|-(7)----7---7-5--|-(3)----3-------3-|-(7)----7---7-5--|
C|-(7)--7---7------|-(7)--7---7------|------0-----------|-(7)--7---7------|
C|--0--------------|-----------------|------------------|-----------------|
F|-----------------|--0--------------|--4---------------|--0--------------|

f|------------0-----|------------------|-----------------|------------0-----|
C|-(4)------4---4---|-(5)----------5---|-----------------|-(4)------4---4---|
A|-(3)----3-------3-|-(7)----7---7---7-|-(7)----7---7-5--|-(3)----3-------3-|
C|------0-----------|-(7)--7---7-------|-(7)--7---7------|------0-----------|
C|------------------|--0---------------|-----------------|------------------|
F|--4---------------|------------------|--0--------------|--4---------------|

f|-----------------|------------0-----|------------------|------------0-----|
C|-----------------|-(4)------4---4---|----------0---0---|-(4)------4---4---| Repeat this
A|-(7)----7---7-5--|-(3)----3-------3-|-(2)--------2---2-|-(3)----3-------3-| entire
C|-(7)--7---7------|------0-----------|-(2)----2---------|------0-----------| section
C|-----------------|------------------|------0-----------|------------------| one.
F|--0--------------|--4---------------|--2---------------|--0---------------| 

Then finish with:
f|-----------------|-----------------|------------0------|
C|-----------------|-----------------|-(4)------4---4----|
A|-(7)----7---7-5--|-(7)----7---7-5--|-(3)----3-------3--|
C|-(7)--7---7------|-(7)--7---7------|------0------------|
C|--0--------------|-----------------|-------------------|
F|-----------------|--0--------------|--4----------------|


Interlude (3:01): (Clean)
f|---------|--------|----------|----------|------------0------|
C|---------|--------|----------|----------|-(4)------4---4----|
A|-------0-|------0-|--------0-|--------0-|-(3)----3-------3--|
C|-(3)-3---|----0---|-(3)--3---|-(3)--3---|------0------------| 
C|--0------|-2------|--5-------|--4-------|-------------------|
F|---------|--------|----------|----------|--4----------------|

f|----------|--------|----------|----------|------------0----|
C|----------|--------|----------|----------|-(4)------4------|
A|--------0-|------0-|--------0-|--------0-|-(3)----3--------|This line only x3
C|-(3)--3---|----0---|-(3)--3---|-(3)--3---|------0----------|
C|--0-------|-2------|--5-------|--4-------|-----------------|
F|----------|--------|----------|----------|--4--------------|


Then finish with:
f|-----------------|
C|----------0------|
A|-(2)--------2----|
C|-(2)----2--------|
C|------0----------|
F|--2--------------|


Outro (3:28): (Clean)
f|-(2)----2------|-(2)----2----|--------0------|-(2)--------|
C|-(4)------4----|-(2)------2--|-(4)------4----|-(4)----4---|
A|-(3)--------3--|-(3)---------|-(3)--------3--|-(3)--3---3-|
C|---------------|-(2)---------|---------------|-(2)--------| Play until it fades.
C|---------------|-(2)---------|---------------|-(2)--------|
F|--0------------|--2----------|--4------------|--2---------|


At about 3:43 till the end, this is played quite softly:
f|-14-14-14-14-14-14-14-14-14-14-14-14-14-14-14-14-|
C|-------------------------------------------------|
A|-------------------------------------------------|
C|-------------------------------------------------|
C|-------------------------------------------------|
F|-------------------------------------------------|
Suggest correction
Give kudos to tab author, rate the tab!
1 2 3 4 5
comments
print report bad tab
guest
You may want to rate the tab now too:
select rating
Wanna post a correction for this tab? Suggest correction