Oops, an error
Loading. Please wait.

Never Meant tab

version 5
version 5

Whole song

  • This tab uses the correct tuning that the song was originally written in.
  • Includes both guitars, with true tuning, with revisions from previous versions.
  • Reformatted to be more easily read.

Interactive

274 views 24 this week
no commentswrite comment
1 2 3 4 5
3 more votes to show rating
add to favorites
×
Save as Personal and add changes to this tab that will be seen only by you. Learn more ›
×
You can save this tab as Personal to edit and correct it or add notes. All changes will be seen only by you. Learn more »
launch autoscroll
font size
0
reset
how to read this tab
guitar tuner
edit
Autoscroll
slow
fast
+/-
esc
set tempo
stop
About this tab version
Reformatted to be more easily read. Was this info helpful? Yes No
Guitar Two Only, a reformatted version the V2 tab by Andrew D / Tim Mansell.

[Section 1 {12/8}] 
D |------2------------------0------------------|
C#|-------0-0----3--------0---0----------------|
A |--------0-------2-----------0---------------|
E |------------------------------0-------------| x8
A |--------------------------------------------|
D |--0---------2-------4-------------2---------|



[Pre - Section 2 {12/8}]
D |--2---|
C#|--3---|
A |--4---|
E |--5---| x4
A |--0---|
D |--0---|


[Section 2 {12/8}]
D |---2-----------2-----------2-----------2---------|--------------------------------------------------|
C#|-----0---0---0---0---0---0---0---0---0---0---0---|---3-----------3-----------3-----------3----------|
A |-------0---0-------0---0-------0---0-------0---0-|-----2---2---2---2---2---2---2---2---2---2---2----|
E |-------------------------------------------------|-------0---0-------0---0-------0---0-------0---0--| x4
A |-------------------------------------------------|--------------------------------------------------|
D |-4-----------------------------------------------|-2------------------------------------------------|
(you can not play the bass notes since the bass plays them as well, and I cant figure out an easy way to 
finger it)           
                                  

[Section 3 {4/4}]

(every measure has a pickup)
D |--|----------|----------|-----0------|-----------|-----0------|----------|-----------|-----0-----|--------|
C#|--|----------|----------|----0--0----|-----------|----0--0----|----------|-----------|----0--0---|--------|
A |--|---4-4-2--|---4-4-2--|---0----0---|---4-4-2---|---0----0---|---4-4-2--|---4-4-2---|---0----0--|---4-4-2|
E |--|-0--0-----|-0--0-----|-0----------|-0--0------|-0----------|-0--0-----|-0--0------|-0---------|-0--0---|
A |-0|----------|----------|------------|-----------|-----------0|----------|-----------|-----------|--------|
D |--|---------0|---------4|-----------0|----------4|------------|---------0|----------4|----------0|--------|

D |--|-----0------|---------------|----------|
C#|--|----0--0----|---------------|----------|
A |--|---0----0---|----0-4b5b4----|---4-4-2--| x2, 
E |--|-0----------|---0-----------|-0--0-----|
A |--|------------|-0-------------|----------|
D |-4|-----------2|--------------0|----------|

D |--|----------|----------|-----0------|
C#|--|----------|----------|----0--0----|
A |--|---4-4-2--|---4-4-2--|---0----0---|
E |--|-0--0-----|-0--0-----|-0----------| (third time)
A |-0|----------|----------|------------|
D |--|---------0|---------4|------------|


[Section 4 {4/4}]
(these are just eighth notes)
D |-----------------|-----------------|---------0-----|
C#|-----------------|-----------------|-------0---0---|
A |-----0-------0---|-----0-------0---|-----0-------0-|
E |---5--5----2---2-|---5---5---5---5-|---0-----------| x3
A |-0-------2-------|-5-------4-------|---------------|
D |-----------------|-----------------|-4-------------|

D |-----------------|-----------------|---------0-------|-------------|
C#|-----------------|-----------------|-------0---0-----|-----3-------|
A |-----0-------0---|-----0-------0---|-----0-------0---|---2---2---2-|
E |---5--5----2---2-|---5---5---5---5-|---0-------------|-0-------0---|
A |-0-------2-------|-5-------4-------|-----------------|-------------|
D |-----------------|-----------------|-4--------------2|-------------|


[Section 1 again]
D |------2------------------0------------------|
C#|-------0-0----3--------0---0----------------|
A |--------0-------2-----------0---------------|
E |------------------------------0-------------| x8 (until fade-out)
A |--------------------------------------------|
D |--0---------2-------4-------------2---------|

*******************
b  bend
*******************

            
            
Suggest correction
Creating personal tab
Creating personal tab
You can edit any tab online and save it as your Personal.

You can edit, replace or remove any tab part or add personal notes – all changes will be seen only by you.

Personal tabs can be accessed anytime from any device, even offline.
Learn more »
Give kudos to tab author, rate the tab!
1 2 3 4 5
comments
print report bad tab
guest
You may want to rate the tab now too:
select rating
Wanna post a correction for this tab? Suggest correction