Oops, an error
Loading. Please wait.

Stay Home Tab

version 1
version 1

Whole song

Interactive

13,724 views 33 this week
1 commentread comment
1 2 3 4 5
accurate
x 4
add to favorites
launch autoscroll
font size
0
reset
how to read this tab
guitar tuner
Tab Pro tools
  • play this tab
  • loop segment
  • change instrument
  • show fretboard
  • metronome
Autoscroll
slow
fast
+/-
esc
set tempo
stop
Difficulty
novice
Band: American Football
Song: Stay Home
Album: American Football

This is a very easy song but as i'm not a good guitarist i only could get one guitar,
and i know it's wrong.

Guitar 1

00:00-02:57
x4                        x3                         x4
------0--------|------0--------|------0--------|                 
------------6--|------------6--|------------6--|
---------5-----|---------5-----|---------5-----|
---3-----------|---0-----------|---------------|
---------------|---------------|----3----------|
---------------|---------------|---------------|

02:57-05:03
-----------------------------------------------|
---------5-----6-----5--------5-----6-----5----|
------5-----5-----5--------------5-----5-------|
-----------------------------------------------|
-----------------------------------------------|
---6-----------------------6-------------------|

05:03-end
------------------0-------------------3-----|
------6-----6-------6-----6-----6--------6--|
---5-----5-----5-------5-----5-----5--------|
--------------------------------------------|
--------------------------------------------|
--------------------------------------------|

If anybody like to correct the song or complete it it would be more than great.
American Football was a great band.. but there's just a few tabs online; if you
know how to play their songs, please contact me or upload the tabs..THX
comments
print report bad tab
1 comment total.
0 reply
Guigel wrote on July 30 2013, 07:30 am

Hey, great tab, Just want to correct the first part, play the bass note F on the third string four times, the D thrice, then the C four times, like you said, but after that, you play F thrice, D four times and C thrice, then you go back and repeat everything (so it's 4,3,4 then 3,4,3 then 4,3,4, etc.)

I'm not very good at tabbing, but the first part's second guitar goes something like this(probably not 100% accurate, but it gives you the idea):


-------8------------8--------5-3-5---1h3h5-3--1h0-|
-----6---6--------6---6------------6--------------|
---9-------9------------9-------------------------|
--------------------------------------------------|
--------------------------------------------------|
--------------------------------------------------|


To anyone with a better ear, feel free to correct me, also a tip, put the song in Audacity and pan everything to the right, it will help you hear the second guitar better, (and the left for the first)

I want to post or [tab]
guest
You may want to rate the tab now too:
select rating
Please do not post tabs as comments. Select "correction" instead!