Oops, an error
Loading. Please wait.

The One With The Wurlitzer tab

version 1
version 1

Whole song

Interactive

772 views 1 this week
no commentswrite comment
1 2 3 4 5
1 last vote to show rating
add to favorites
×
Save as Personal and add changes to this tab that will be seen only by you. Learn more ›
×
You can save this tab as Personal to edit and correct it or add notes. All changes will be seen only by you. Learn more »
launch autoscroll
font size
0
reset
how to read this tab
guitar tuner
edit
Autoscroll
slow
fast
+/-
esc
set tempo
stop
Author
Difficulty
****************************************************************************************
*                                                                                      *
*                 The One With The Wurlitzer - American Football                       *
*                                                                                      *
****************************************************************************************

Tuning: E G# B F# B D#

Note: 
This was taken from the recent american football live performances, specifically the
redbull session. The band have tuned most of their live songs down half a step or so to 
compensate for Mike's voice not reflecting his 18 year old self anymore. This tab even 
when put to the album tuning isn't played the same as the album version which is 
slightly less complex but if you tune it half a step higher you should be able to 
happily play along to the album version of this song.

****************************************************************************************

Mike's Part:

This tab mostly covers steve's part of the song live. Mike's part is this very simple
riff repeated over from Stay Home which is played together with this song live. There's 
already a very good stay home tab on the site but Mike's riff throughout this song is as
follows (Note the different tuning):

E  |---------------------7-----------------------7--------|
B  |----9------9------9---------9------9------9-----------|
G# |-------10-----10--------10-----10-----10--------10----|
C# |------------------------------------------------------|
G# |------------------------------------------------------|
E  |------------------------------------------------------|

****************************************************************************************

Steve's Part:

This part is fairly simple when you get the shapes down, this part repeats throughout the
song and Steve finishes by strumming the first chord played (9-8-9-0-0-0).

D# |------------------------------------------------|
B  |----------------0-----------------------0-------|
F# |-------------------0-----------------------0----|
B  |----------9-----------9-----------9-------------|
G# |-------8-----8-----------8-----8-----8----------|
E  |----9-----------------------9-------------------|

D# |------------------------------------------------|
B  |----------------0-----------------------0-------|
F# |-------------------0-----------------------0----|
B  |----------9-----------9-----------9-------------|
G# |-------8-----8-----------8-----8-----8----------|
E  |----7-----------------------7-------------------|

D# |------------------------------------------------|
B  |----------------0-----------------------0-------|
F# |-------------------0-----------------------0----|
B  |----------5-----------5-----------5-------------|
G# |-------5-----5-----------5-----5-----5----------|
E  |----5-----------------------5-------------------|

D# |------------------------------------------------|
B  |----------------0-----------------------0-------|
F# |-------------------0-----------------------0----|
B  |----------2-----------2-----------5-------------|
G# |-------1-----1-----------1-----5-----5----------|
E  |----2-----------------------5-------------------|

            
            
Suggest correction
Creating personal tab
Creating personal tab
You can edit any tab online and save it as your Personal.

You can edit, replace or remove any tab part or add personal notes – all changes will be seen only by you.

Personal tabs can be accessed anytime from any device, even offline.
Learn more »
Give kudos to tab author, rate the tab!
1 2 3 4 5
comments
print report bad tab
guest
You may want to rate the tab now too:
select rating
Wanna post a correction for this tab? Suggest correction