Oops, an error
Loading. Please wait.

The Gold Rush tab

version 2
version 2

Whole song

280 views 1 this week
1 commentread comment
1 2 3 4 5
1 last vote to show rating
add to favorites
×
Save as Personal and add changes to this tab that will be seen only by you. Learn more ›
×
You can save this tab as Personal to edit and correct it or add notes. All changes will be seen only by you. Learn more »
launch autoscroll
font size
0
reset
how to read this tab
guitar tuner
edit
Autoscroll
slow
fast
+/-
esc
set tempo
stop
Artist: American Hi-Fi
Album: American Hi-FI
Song: The Gold Rush
Tabbed By: Chris Simmons, JEEtoP@hotmail.com


Always Wanted to Play This One And No Other Tab Is Even Close So Here Goes...
Great Fun To Rock Out To.

Drop-D Tuning
Heavy Distortion!

Intro:
                       
e|--------------------------------------|
B|--------------------------------------|    Play Quick!
G|-999--------------------------7-------|:
D|-999-8--777-10--121212-8--777-7-------|:
A|-777-8--777-10--121212-8--777-5-------|
D|-----8--777-10--121212-8--777---------|

---

Verse:

Play Intro but less distortion, or just play root note...

---

Pre-Chorus:
                       
e|---------------------------------------|
B|---------------------------------------|
G|-55555555------------------------------|
D|-55555555-055555555-033333333-33333333-|
A|-33333333-055555555-033333333-33333333-|
D|----------055555555-033333333-33333333-|

e|-------------------------------------------|
B|----------------------------XXX------------|
G|-055555555------------------XXX------------|
D|-055555555-055555555-0333333XXX6-66666666--|
A|-033333333-055555555-0333333XXX6-66666666--|
D|-----------055555555-0333333---6-66666666--|

---

Chorus:

Same As Intro...
e|--------------------------------------|
B|--------------------------------------|    Play Quick!
G|-999--------------------------7-------|:
D|-999-8--777-10--121212-8--777-7-------|:
A|-777-8--777-10--121212-8--777-5-------|
D|-----8--777-10--121212-8--777---------|

---

Chorus-to-Verse Fill:

Like Intro only...
e|--------------------------------------|
B|--------------------------------------|    Play Quick!
G|-999-11--121212-6--777--------7-------|:
D|-999-11--121212-6--777-8--777-7-------|:
A|-777-9---101010-4--555-8--777-5-------|
D|-----------------------8--777---------|

---

Verse:

Back To Intro with less distortion...

---

Pre-Chorus:

Same As Above...

---

Chorus:

Same As Above...

---

Bridge:

This Is The Pattern Just Mess Around, Mute A Few Notes etc...
Same As Intro...
e|-------------------|
B|-------------------|
G|--5-4--------------|
D|--5-4-7-5----------|
A|--3-2-7-5----------|
D|------7-5----------|

I think It Sounds Alrite Like...
e|-------------------|
B|-------------------|
G|--5-4--------------|
D|--x-x-7-5----------|
A|--3-2-x-x----------|
D|------x-x----------|

---

Solo:

Chorus Played Underneath, Havn't Tabbed Solo Just Mess Around With Some Notes That Sound Right.
Can't remember which ones i play.

Oh and end the last chorus repeat in the solo with...
...---------------------|
...---------------------|
...-777--------77-------|
...-777-8--777-77-------|
...-555-8--777-55-------|
...-----8--777----------| Then Pause, Then Back Into Chorus...

---

Chorus:
Same As Above, Repeat Twice...

---

Outro:

Same As Chorus-to-Verse Fill Above...

End With...
...-----------------------|
...-----------------------|
...-777---------077-------|
...-777-8--777--077-------|
...-555-8--777--055-------|
...-----8--777------------| 

            
            
Suggest correction
Creating personal tab
Creating personal tab
You can edit any tab online and save it as your Personal.

You can edit, replace or remove any tab part or add personal notes – all changes will be seen only by you.

Personal tabs can be accessed anytime from any device, even offline.
Learn more »
Give kudos to tab author, rate the tab!
1 2 3 4 5
comments
print report bad tab
1 comment total.
0 reply
zaprox913 115 Aug 02, 2013 10:11 AM

Nice tab, but I hear more of a drop before hitting the 7th fret towards the end of the main riff:

e|--------------------------------------|
B|--------------------------------------|
G|-999--------------------------7-------|
D|-999-8--777-10--121212-5--777-7-------|
A|-777-8--777-10--121212-5--777-5-------|
D|-----8--777-10--121212-5--777---------|
^here

It could be the 6th fret. Both seem to work for my ears.

guest
You may want to rate the tab now too:
select rating
Wanna post a correction for this tab? Suggest correction