Oops, an error
Loading. Please wait.

What About Today Tab

765 views 6 this week
no commentswrite comment
1 2 3 4 5
please rate
add to favorites
launch autoscroll
font size
0
reset
how to read this tab
guitar tuner
Autoscroll
slow
fast
+/-
esc
set tempo
stop
Help us to improve Ultimate-Guitar.com Take our survey!
×
American Hi-Fi
What about today?

tabbed by mike
any corrections email me at
ILiveBball247@excite.com
(its gay Im too lazy to change it)

Dropped D tunning
listen to the cd to get all
the correct rhythms

Intro
Guitar 1
E|-----------------------------------------------------|
B|-----------------------------------------------------|
G|-77------------77------------77----------------------|
D|-77-----7-5555-77-7p5---7777-77-----7-5555-2222-5555-|
A|-55-5h7---5555-55-----7-7777-55-5h7---5555-2222-5555-|
D|----------5555----------7777----------5555-2222-5555-|

Guitar 2 (comes in 2nd time)
E|---------------------------------------------------|
B|---------------------------------------------------|
G|-11-11-11-11/12-11-11-11-11/12-11-11/7-14-14-14-14-|
D|--x--x--x--x/-x--x--x--x--x/-x--x--x/x--x--x--x--x-|
A|--9--9--9--9/10--9--9--9--9/10--9--9/9-12-12-12-12-|
D|---------------------------------------------------|

Pre-Verse (let ring out)
E|-----|
B|-----|
G|-----|
D|--0--|
A|--0--|
D|--0--|

Verse (it might be something with these
       chords but its probably wrong
       somebody help me out with this)
E|----------------|
B|----------------|
G|--7--12--9--12--|
D|--7--12--9--12--|
A|--5--10--7--10--|
D|----------------|

Pre-Chorus
E|--------------------------|
B|--------------------------|
G|--12-12-12-12-12-12-12-12-|
D|---x--x--x--x--x--x--x--x-|
A|--10-10-10-10-10-10-10-10-|
D|--------------------------|

Chorus
Guitar 1
E|-----------------------------------------|
B|-----------------------------------------|
G|-777777----7777------777777--------------|
D|-777777-55-7777-7777-777777-55-2222-5555-|
A|-555555-55-5555-7777-555555-55-2222-5555-|
D|--------55------7777--------55-2222-5555-|

Guitar 2
E|------------|-----------|
B|------------|-----------|
G|--7b-7p6----|-----------|
D|---------7--|--5b-5p2---|
A|------------|---------5-|
D|------------|-----------|
    3 times     last time

verse
pre-chorus
chorus

Breakdown
Guitar 1
E|----------------------|---------------------|
B|----------------------|---------------------|
G|----------------------|---------------------|
D|-777777-7--9-55555555-|-222222-2-4-00000000-|
A|-777777-7--9-55555555-|-222222-2-4-00000000-|
D|-777777-7--9-55555555-|-222222-2-4-00000000-|
        2 times               last time
Guitar 2
E|----------------------|---------------------|
B|----------------------|---------------------|
G|-999999-9-11-77777777-|-444444-4-6-22222222-|
D|-999999-9-11-77777777-|-444444-4-6-22222222-|
A|-777777-7--9-55555555-|-222222-2-4-00000000-|
D|----------------------|---------------------|
        2 times               Last time

then this (2 times)
E|------------------------------------------|
B|-7-7-7/8-7-7-2-7-7/8/10-10-10-10-10h12-10-|
G|-x-x-x/x-x-x-x-x-x/x/-x--x--x--x----------|
D|-4-4-4/5-4-4-0-4-4/5/-7--7--7--7----------|
A|------------------------------------------|
D|------------------------------------------|

chorus twice to end
Suggest correction new What's this?
You can suggest a correction to this tab. Community and Mods will review your correction and vote to approve or reject it.
comments
We did not receive enough feedback on this tab! Please rate:
print report bad tab
1 2 3 4 5
guest
You may want to rate the tab now too:
select rating
Please do not post tabs as comments. Select "correction" instead!