Oops, an error
Loading. Please wait.

Dear Friends And Gentle Hearts bass

455 views 3 this week
no commentswrite comment
1 2 3 4 5
3 more votes to show rating
add to favorites
×
Save as Personal and add changes to this tab that will be seen only by you. Learn more ›
×
You can save this tab as Personal to edit and correct it or add notes. All changes will be seen only by you. Learn more »
launch autoscroll
font size
0
reset
guitar tuner
edit
Autoscroll
slow
fast
+/-
esc
set tempo
stop
Author
Difficulty
-------------------------------------------------------------------------------
		 Dear Friends and Gentle Hearts - American Steel
-------------------------------------------------------------------------------

Tabbed By : xnighttrainx
e-mail: agent_0range182@yahoo.com

Tuning: Standard

Verse pt 1 x1

G|---------------------------------------------------------------------------|
D|---------------------------------------------------------------------------|
A|-3-1/-88888888-00000000-11111111-33333333----------------------------------|
E|---------------------------------------------------------------------------|

Verse pt 2 x1
G|---------------------------------------------------------------------------|
D|---------------------------------------------------------------------------|
A|-88888888-00000000-11111111-33333333---------------------------------------|
E|---------------------------------------------------------------------------|

Pre-Chorus
G|---------------------------------------------------------------------------|
D|---------------------------------------------------------------------------|
A|----3>-5>-111111-11----3>-5>-1>11111---------------------------------------|
E|-1>-----------------1>-----------------------------------------------------|

Chorus x3
G|---------------------------------------------------------------------------|
D|---------------------------------------------------------------------------|
A|----3>-5>-1>---------------------------------------------------------------|
E|-1>------------------------------------------------------------------------|

Chorus End x1
G|---------------------------------------------------------------------------|
D|---------------------------------------------------------------------------|
A|----3>-1>>-----------------------------------------------------------------|
E|-1>------------------------------------------------------------------------|

Bridge x4
G|---------------------------------------------------------------------------|
D|-3>------------------------------------------------------------------------|
A|----3>-5>-1>---------------------------------------------------------------|
E|---------------------------------------------------------------------------|

Final Chorus/Outro
G|---------------------------------------------------------------------------|
D|---------------------------------------------------------------------------|
A|----3>-5>-1>---------------------------------------------------------------|
E|-1>------------------------------------------------------------------------|

Ending
G|---------------------------------------------------------------------------|
D|---------------------------------------------------------------------------|
A|----3~-5~-5~-1~-1~---------------------------------------------------------|
E|-1~----------------1~------------------------------------------------------|

This tab should be right on.  In the chorus, it sounds like he tags the fifths for the 
on the 4th beat.  Its easy to pick up, but I didn't add them in.  It sounds fine if you 
it either way.

| /  slide up
| \  slide down
| h  hammer-on
| p  pull-off
| ~  vibrato
| +  harmonic
| x  Mute note
===============================================================================
Suggest correction
Creating personal tab
Creating personal tab
You can edit any tab online and save it as your Personal.

You can edit, replace or remove any tab part or add personal notes – all changes will be seen only by you.

Personal tabs can be accessed anytime from any device, even offline.
Learn more »
Give kudos to tab author, rate the tab!
1 2 3 4 5
comments
print report bad tab
guest
You may want to rate the tab now too:
select rating
Wanna post a correction for this tab? Suggest correction