Oops, an error
Loading. Please wait.

Part Of Me Bass Tab

25 views 1 this week
no commentswrite comment
1 2 3 4 5
2 more votes to show rating
add to favorites
launch autoscroll
font size
0
reset
guitar tuner
Autoscroll
slow
fast
+/-
esc
set tempo
stop
Help us to improve Ultimate-Guitar.com Take our survey!
×
Author
Difficulty
novice
About this tab version
Using standard tuning, you literally only need to know the chords C G# D# A#. its a pretty basic song and yeah bass probably isn't meant to be played with this song but who cares? we can play bass if we want to eh? anyways this is my very first tab so please leave a review or something and i hope this was useful for ya :P. Was this info helpful? Yes No
[Verse]

G|-----------------------------------------------------------------------------------------------------|
D|-----------------------------------------------------------------------------------------------------|
A|--3---6---3---6----3-3-3-3------6-6-6-6------1-1-1-1------3-3-3-3---------1-1-1-1-1------------------|
E|----4-------4--------------4-4-4--------4--------------------------4-4-4-4---------------------------|


[Chorus]
G|-------------------------------------------------------------------------------------------------------|
D|-------------------------------------------------------------------------------------------------------|
A|--3-3-3-3-3-3-3-3-----------------6-6-6-6-6-6-6-6-1-1-1-1-1-1-1-1--------------------------------------|
E|------------------4-4-4-4-4-4-4-4----------------------------------------------------------------------|

G|----------------------------------------------------------------------------------------------------|
D|----------------------------------------------------------------------------------------------------|
A|--3-3-3-3-3-3-3-3-----------------6-6-6-6-6-6-6-6-1-1-1-1-1-----------------------------------------|
E|------------------4-4-4-4-4-4-4-4-------------------------------------------------------------------|

[Post Chorus]
G|----------------------------------------------------------------------------------------|
D|----------------------------------------------------------------------------------------|
A|--3-3-3-3---------1-1-1-1-1-1-1-1-------------------------------------------------------|
E|----------4-4-4-4-----------------------------------------------------------------------|

[Verse]
G|-----------------------------------------------------------------------------------------------------------|
D|-----------------------------------------------------------------------------------------------------------|
A|--3-3-3-3-3-3-3-3---------------6-6-6-6-6-6-6-6-----3-3-3-3-3-3-3-3---------------6-6-6-6-6-6-6-6----------|
E|-----------------4-4-4-4-4-4-4-4-----------------------------------4-4-4-4-4-4-4-4-------------------------|

G|----------------------------------------------------------------|
D|----------------------------------------------------------------|
A|--3-3-3-3-3-3-3-3---------------6-6-6-6-6-6-6-6-1-1-1-1-1-1-1-1-|
E|-----------------4-4-4-4-4-4-4-4--------------------------------|

G|---------------------------------------------------------------------|
D|---------------------------------------------------------------------|
A|---3-3-3-3-3-3-3-3----------------1-1-1-1-1-1-1-1/13-13-13-13-13-13--|
E|------------------4-4-4-4-4-4-4-4------------------------------------|

[Chorus]
G|-------------------------------------------------------------------------------------------------------|
D|-------------------------------------------------------------------------------------------------------|
A|--3-3-3-3-3-3-3-3-----------------6-6-6-6-6-6-6-6-1-1-1-1-1-1-1-1--------------------------------------|
E|------------------4-4-4-4-4-4-4-4----------------------------------------------------------------------|

G|----------------------------------------------------------------------------------------------------|
D|----------------------------------------------------------------------------------------------------|
A|--3-3-3-3-3-3-3-3-----------------6-6-6-6-6-6-6-6-1-1-1-1-1-----------------------------------------|
E|------------------4-4-4-4-4-4-4-4-------------------------------------------------------------------|

[Bridge]
G|--------------------------------------------------------------------------------------------------|
D|--------------------------------------------------------------------------------------------------|
A|--3-3-3-3--------1-1-1-1-1-1-1-1--3-3-3-3----1-1-1-1-1-1-1-1--3---6-1--3---6-1--------------------|
E|---------4-4-4-4------------------4-4-4-4-----------------------4--------4------------------------|

[Chorus]
G|-------------------------------------------------------------------------------------------------------|
D|-------------------------------------------------------------------------------------------------------|
A|--3-3-3-3-3-3-3-3-----------------6-6-6-6-6-6-6-6-1-1-1-1-1-1-1-1--------------------------------------|
E|------------------4-4-4-4-4-4-4-4----------------------------------------------------------------------|

G|----------------------------------------------------------------------------------------------------|
D|----------------------------------------------------------------------------------------------------|
A|--3-3-3-3-3-3-3-3-----------------6-6-6-6-6-6-6-6-1-1-1-1-1-----------------------------------------|
E|------------------4-4-4-4-4-4-4-4-------------------------------------------------------------------|

[Outro]
G|----------------------------------------------------------------------------------------|
D|----------------------------------------------------------------------------------------|
A|--3-3-3-3---------1-1-1-1-1-1-1-1-------------------------------------------------------|  X4
E|----------4-4-4-4-----------------------------------------------------------------------|

*end on A|-3- *
Suggest correction
Give kudos to tab author, rate the tab!
1 2 3 4 5
comments
print report bad tab
guest
You may want to rate the tab now too:
select rating
Wanna post a correction for this tab? Suggest correction