Oops, an error
Loading. Please wait.

Bonheur Ampute tab

version 1
version 1

Whole song

Interactive

2,490 views 3 this week
1 commentread comment
1 2 3 4 5
3 more votes to show rating
add to favorites
×
Save as Personal and add changes to this tab that will be seen only by you. Learn more ›
×
You can save this tab as Personal to edit and correct it or add notes. All changes will be seen only by you. Learn more »
launch autoscroll
font size
0
reset
how to read this tab
guitar tuner
edit
Autoscroll
slow
fast
+/-
esc
set tempo
stop
#------------------------------------PLEASE  NOTE------------------------------------------------#
#This file is the author's own work and represents their interpretation of the #
#song. You may only use this file for private study, scholarship, or research#
#------------------------------------------------------------------------------------------------#

Band   Amesoeurs
Album: Ruines Humaines
Song: Bonheur Ampute

Transcribed By: Elathen
Email:         ningalia87@yahoo.com

Copyright (c) Northern Silence Productions
Version 1.0 - 26/12/2007

Tuning E A D G B E


. - palm mute / - slide up to
 - slide down to ~ - vibrato
h - hammer on p - pull off
, - slight palm mute () - ghost note, sustained note
" " tremolo note <> - Trill

Suffixes for bend
f - full bend h - half bend
ph - pinched harmonic q - quarter bend
t - tap bend * - see comment
^ - Hold bend r - release bend
x – Staccato ~ - vibrato bend


Note: Do not expect this tab to be perfect, it’s merely my interpretation of this
song. 
use really distorted guitars in their music so its hard to hear, but it should be
an o.k interpretation.

Riff 1
|-------------------------|---------------|---------------------|
|-------------------------|---------------|---------------------|
|---------2-------------2-|------------2--|---------------------|
|---4--4--4--4-4--4--4--4-|--4-4--4-4--4--|--4--4--4--5-5--4----|
|---5--5--5--5-5--5--5--5-|--5-5--5-5--5--|--5--5--5--5-5--5----|
|-------------------------|---------------|---------------------|

Riff 2x2                                   x1
|---5"----3"------5"--------[0"]----------|---3"----3"------2"---------|
|---3"----3"------3"--------[0"]----------|---5"----4"------3"---------|
|-----------------------------------------|----------------------------|
|-----------------------------------------|----------------------------|
|-----------------------------------------|----------------------------|
|-----------------------------------------|----------------------------|

Riff 3
|--------------------|-----------------------------|
|-3"--2"---3"--------|--3"----5"----7"-----10"-----|
|-5"--3----5"---3"---|--5"----6"----8"-----8"------|
|---------------5"---|-----------------------------|
|--------------------|-----------------------------|
|--------------------|-----------------------------|

Play Riff 2 x 3

Fill
|-10^----|
|-8^-----|
|--------|
|--------|
|--------|
|--------|

Play Riff 2 x 3

Riff3
Acoustic break: x 4                          x 2
|-------------------------------------------|--------------------------|
|-------------------------------------------|--------------------------|
|----------------------2--------------------|--------------------------|
|------------4--------------4---------------|----5----5----4-----------|
|-------5--------5--------------5-----------|--------------------------|
|--0----------------------------------0-----|--------------------------|

Play Riff 2 x 4

 x2                                x1
|---------------------------------|----------------|
|---------------------------------|----------------|
|---------------------------------|----------------|
|-2-2-2--3-3-3---2-2-2---2--2-2-2-|--2--2---1------|
|-2-2-2--3-3-3---2-2-2---2--2-2-2-|--2--2---1------|
|-0-0-0--1-1-1---4-4-4---0--0-1-1-|--0--0---0------|
                                     .  .   .
Riff 4
* Play Riff 1 on clean guitar 4 Times, followed wtih Distortion

Riff 5, Multi pick all notes for each of sets
|-------------------------------------------------------------------|
|-------------------------------------------------------------------|
|-------------------------------------------------------------------|
|---12------------12----11------------------------------------------|
|----------12--------------------12---------------------------------|
|-----------------------------------------14-----15----14-----------|

Riff 5 b
|---10------------10---9-------------------------------------------|
|-----------10----------------10-----------------------------------|
|--------------------------------------11-----12---11--------------|
|------------------------------------------------------------------|
|------------------------------------------------------------------|
|------------------------------------------------------------------|

Riff 5 c
|--10----12-----9------10-------14--------------------|
|-------------------------------------14---15^--------|
|-----------------------------------------------------|
|-----------------------------------------------------|
|-----------------------------------------------------|
|-----------------------------------------------------|

End.

            
            
Suggest correction
Creating personal tab
Creating personal tab
You can edit any tab online and save it as your Personal.

You can edit, replace or remove any tab part or add personal notes – all changes will be seen only by you.

Personal tabs can be accessed anytime from any device, even offline.
Learn more »
Give kudos to tab author, rate the tab!
1 2 3 4 5
comments
print report bad tab
1 comment total.
0 reply
luinros 10 Oct 22, 2008 02:32 PM

For the intro, this sounds better:

|-------------------------|---------------|---------------------|
|-------------------------|---------------|---------------------|
|-------------------------|---------------|---------------------|
|---------4-------------4-|------------4--|-----4--4--5-5--4----|
|---5--5--5--5-5--5--5--5-|--5-5--5-5--5--|--5--5--5--5-5--5----|
|---7--7--7--7-7--3--3--3-|--3-3--3-3--3--|--3--3--3--3-3-------|

guest
You may want to rate the tab now too:
select rating
Wanna post a correction for this tab? Suggest correction