Oops, an error
Loading. Please wait.

The Dreamer chords

version 2
version 2

Whole song

  • Transcribed by ear from this version: https://www.... Show more
145 views 6 this week
no commentswrite comment
1 2 3 4 5
2 more votes to show rating
add to favorites
×
Save as Personal and add changes to this tab that will be seen only by you. Learn more ›
×
You can save this tab as Personal to edit and correct it or add notes. All changes will be seen only by you. Learn more »
launch autoscroll
font size
0
reset
transpose
0
reset
simplify chords
display chords
guitar tuner
edit
Autoscroll
slow
fast
+/-
esc
set tempo
stop
About this tab version
Transcribed by ear from this version: https://www.youtube.com/watch?v=hhRuAQKP4Rw. Thanks to Howdi for the broard strokes and All-Guitar-Chords for helping me name the chords. Was this info helpful? Yes No
Strumming Is this strumming pattern correct? Yes No
All 96 bpm
1
&
2
&
3
&
Listen
[Chords]
     C     Cmaj7   Cadd9     Am    Asus2   Asus4     F       G       C?
e|---0---|---0---|---0---|---0---|---0---|---0---|---1---|---3---|---0---|
B|---1---|---0---|---3---|---1---|---0---|---3---|---1---|---3---|---1---|
G|---0---|---0---|---0---|---2---|---2---|---2---|---2---|---0---|---3---|
D|---2---|---2---|---2---|---2---|---2---|---2---|---3---|---0---|---2---|
A|---3---|---3---|---3---|---0---|---0---|---0---|---3---|---2---|---3---|
E|-------|-------|-------|-------|-------|-------|---1---|---3---|-------|

[Intro]
   C            Cmaj7        Cadd9        C
E|------------|------------|------------|------0-----|
B|------1-----|------0-----|------3-----|------------|
G|----0---0---|----0---0---|----0---0---|----0---0---|
D|--2-------2-|--2-------2-|--2-------2-|--2-------2-|
A|3-----------|3-----------|3-----------|3-----------|
E|------------|------------|------------|------------|

   Am           Asus2        Asus4        Am
E|------------|------------|------------|------0-----|
B|------1-----|------0-----|------3-----|------------|
G|----2---2---|----2---2---|----2---2---|----2---2---|
D|--2-------2-|--2-------2-|--2-------2-|--2-------2-|
A|0-----------|0-----------|0-----------|0-----------|
E|------------|------------|------------|------------|

   F            F            G            G
E|------------|------------|------------|------------|
B|------------|------------|------3-----|------3-----|
G|------2-----|------2-----|------0-----|------0-----|
D|----3---3---|----3---3---|----0---0---|----0---0---|
A|--3-------3-|--3-------3-|--2-------2-|--2-------0-|
E|1-----------|1-----------|3-----------|3-----------|

[Verse]
       C                   C                 Cmaj7                 Cmaj7
I'm so god damned tired of whistling "I'm So Lonesome I Could Cry"
         Am                   Am             Asus2            Asus2               C    C?
And your eyes, they look like diamonds still stuck inside the mines, I'll dig 'em out
      F                         F                       C        G
And I know that you're waiting around to find the right man, you say
        F                       F                       C        G
But the thing about taking your time, it takes it right back someday
    F                   F                Am     Am
And no one deserves my world quite like you do
         F            G                  G
And it's true, I hate everything but you

[Chorus]
      C         Cmaj7            Cadd9                   C
So tonight I'll follow you home, start up a fire that'll keep us both warm and I'll
Am           Asus2           Asus4                   Am                           F      F
Drag my lips up your thighs, wait 'til you open your eyes when I'll hold you real still
         G              G      C       
And if I can't have you, nobody will

[Solo 1]
... Cmaj7   Cadd9   C
Am   Asus2   Asus4   Am

[Verse]
C                     Cmaj7    Cmaj7             Cmaj7
Winter was leaving early, that chill to the bone
      Am                Am              Asus2           Asus2                 C    C?
And I kissed you every morning, as the wind whistled on, but God's humour did too
    F                       F                   C         G
But when you're as happy as this time starts to fly, it's true
      F                       F                            C            G
But I built these wings after jumping, not dreaming of the sky for you
                 F   F               Am   Am
And it's all for you, my skin is grey too
         F                      G
And I'll lay by your side 'till everything is rotten through

[Solo 2]
C   Cmaj7   Cadd9   C
Am   Asus2   Asus4   Am

[Chorus]
      C          Cmaj7           Cadd9                       C
So tonight we'll celebrate life, eat the best food and we'll drink the best wine
         Am        Asus2 Asus4                       Am                  
And we'll make love too, dreaming every moment of you 
                   F    F                    Am    Am
Your chest against mine, my gun against your spine
          F                       G G              
And we'll leave the world the way     dreamers do

[Outro]
C   Cmaj7   C?   C
                 F   F             Am   Am
And it's all for you, it's all for you
                    F  F                Am   Am
These things that I do, they're all for you
                F   F                    Am   Asus2
My skin is grey too, 'cause it's all for you
         F                      G
And I'll lay by your side 'till everything is rotten through

            
            
Suggest correction
Creating personal tab
Creating personal tab
You can edit any tab online and save it as your Personal.

You can edit, replace or remove any tab part or add personal notes – all changes will be seen only by you.

Personal tabs can be accessed anytime from any device, even offline.
Learn more »
Give kudos to tab author, rate the tab!
1 2 3 4 5
comments
print report bad tab
guest
You may want to rate the tab now too:
select rating
Wanna post a correction for this tab? Suggest correction