Oops, an error
Loading. Please wait.

Naav Chords

4,311 views 18 this week
no commentswrite comment
1 2 3 4 5
please rate
add to favorites
launch autoscroll
font size
0
reset
transpose
0
reset
simplify chords
display chords
guitar tuner
Tab Pro tools
  • play this tab
  • loop segment
  • change instrument
  • show fretboard
  • metronome
×
Best way to learn
"Naav"
Autoscroll
slow
fast
+/-
esc
set tempo
stop
Contributor
Difficulty
intermediate
Naav- Uddan
D: x57775
Em: x79987
Bm: 755777
A: 577655 or x02220
F#m: 244222 or (x 9 11 11 10 9)
/ means slide up
\ means slide down
Guitar 2 is actually played on piano, use the corresponding notes for the same..




Intro:D: xxx23x
Dx2 Bmx2 -x3
Dx2 Bmx2 -x4, with
Guitar2(Piano):(through till first 4 lines)
e-10-12-14-12-10-12-14-12-------10-12-10----10-12-10-|
B----------------------------12----------12----------|

Verse1:
D		A	       Bm
charhti lehrain laang na paye, kyun haanpti si
F#m	 G     D		G	 F#m
naav hai teri, naav hai teri...(naav hai teri)(low)
D	    A		    Bm
tinka tinka jod ke saansain kyun naapti si
F#m	 G     D		G	 A
naav hai teri, naav hai teri...(naav hai teri)(high)
Strum:
G	   G		    A		A
ulti behti dhaar hai bairi, dhaar bairi (x2)
	   A		F#m
ke ab kuch kar ja re bandhu.

D D/G F#m\D
D/Em
     F#m\D			 D/G
e--------10----10----10----10----10----...(Guitar 2/piano--|
B--10-10----10----10----10----10----10---------------------|

		 F#m\D				D/Em
e-15-15-15-15-15-15--10----10----10----10----10----|
B-----------------------10----11----12----11----10-|

	     Em\
B-10-10-10-10-10---

D			     D/G
jigar jhuka ke baan baandh le, hai baat thehri
	F#m\D		      D/Em		Em\
jaan pe teri, jaan pe teri...(hoooo jaan pe teri)
D			  D/G
maiyya ho ki taan saadh le, to baat thehri
	F#m\D		     D/Em	    Em\
jaan pe teri, shaan pe teri...(shaan pe teri)
     A		Em	    D		    F#m
chal jeet jeet lehra ja, parcham tu laal pehra ja
   D		G	F#m	Em
ab kar ja tu ya mar ja, kar le taiyaari

D	     A		      Bm
ud ja ban ke dhoop ka panchi, chhuda ke gehri
F#m    G	D		D/G		F#m\
chaaon andheri, chaaon andheri...(chaaon andheri)
D		    D/G
tinka tinka jorr ke saansain kiyun naapti si
	 F#m\D			G	   A
naav hai teri, naav hai teri...(naav hai teri)

Solo:
e-----------------------------------------------------------------|
B-----------------------------------------------------------------|
G---------------------4-----------4-----------------------777777~-|
D-----4-5-7~------5-7---5-5h7-5-7---5-5h7-5-4-5-------------------|
A-5-7-------------------------------------------7/9\777777~-------|
E-----------------------------------------------------------------|

e-------------------------------------|
B----------------5/7------------------|
G--7-6-6p4-6-4-7----9\7-77-7\6-4/6-44-|
D-------------------------------------|
A-------------------------------------|
E-------------------------------------|

e----------------------------------------------------------------------------|
B----------------------------------------------------------------------------|
G-----4-----------4----------------------------------------------------------|
D-5-7---5-5h7-5-7---5-5h7-5-4-5---------------5-4-4-5------------------------|
A-------------------------------7/9\7-5-5------------7/9\7-5-5---555555------|
E-----------------------------------------5-7~-----------------5-------77777-|

e-----------------------|
B-----------------------|
G-----------------------|
D-----------------------|
A-----------------------|
E--7-7-6-5~-55555-------|

D			 D/G
Rakh dega jhakjhor ke tujhe, toofaano ka
G	 F#m\D		      D/Em		Em\
ghor hai dera, ghor hai dera...(ghor hai dera)
D			  D/G
Bhawar se darke haar maan le, kaaheka fir
G	F#m\D		      D/Em		Em\
jor hai tera, jor hai tera...(jor hai tera)
    A		  Em	   D		  F#m
Hai dil me roshni tere, tu cheer daal sab ghere
   D		 G	F#m  Em			Em
Lehron ki gardan kaske, daal fande re...(daal fande re)

   D	       A	       Bm
Ki dariya bole waah re panthi, sar aankhon pe
F#m	 G	D		D/G		F#m\
naav hai teri, naav hai teri.....(naav hai teri)
D			 D/G
charhti lehrain laang na paey, kyun haanpti si
G	 F#m\D			D/G	F#m\
naav hai teri, naav hai teri............(naav hai teri)
G	   G		    A		A
ulti behti dhaar hai bairi, dhaar bairi (x2)
	   A		 F#m
ke ab kuch kar ja re bandhu.

Thankyou
-Rhyshabh
comments
We did not receive enough feedback on this tab! Please rate:
print report bad tab
1 2 3 4 5
I want to post or [tab]
guest
You may want to rate the tab now too:
select rating
Please do not post tabs as comments. Select "correction" instead!