Oops, an error
Loading. Please wait.

Raise Your Hands tab

37 views 1 this week
no commentswrite comment
1 2 3 4 5
3 more votes to show rating
add to favorites
×
Save as Personal and add changes to this tab that will be seen only by you. Learn more ›
×
You can save this tab as Personal to edit and correct it or add notes. All changes will be seen only by you. Learn more »
launch autoscroll
font size
0
reset
how to read this tab
guitar tuner
edit
Autoscroll
slow
fast
+/-
esc
set tempo
stop
Artist: Ammotrack (Sweden)
Song: Raise Your Hands
Album: Raise Your Hands (2014)

[Intro]
e|-------------------------------------------|
B|-------------------------------------------|
G|-------------------------------------------|
D|-------------------------------------------|
A|-------------------------------------0-3h5-|
D|-0-0-3-0-0-0-0-3-0-0-0-0-3-0-0-0-3h5-------|

                                      PM------
e|--------------------------------------------|
B|--------------------------------------------|
G|--------------------------------------------|
D|--------------------------------------------|
A|------------------------------------3-------|
D|-0-0-3-0-0-0-0-3-0-0-0-0-3-0-0-3h5----7-5-3-|

e|-------------------------------------------|
B|-------------------------------------------|
G|-------------------------------------------|
D|-------------------------------------------|
A|-------------------------------------0-3h5-|
D|-0-0-3-0-0-0-0-3-0-0-0-0-3-0-0-0-3h5-------|
                                        
e|---------------------------------------|
B|---------------------------------------|
G|---------------------------------------|
D|---------------------------------------|
A|-----------------0-3-0-3-0-5-3-0-2-3-3-|
D|-0-0-3-0-0-0-----0-3-0-3-0-5-3-0-2-3-3-|

I´m alive now ready to fight for 
what I've been dreaming of 
hit the lights and bring it on

[Verse 1]
e|-------------------------------------------|
B|-------------------------------------------|
G|-------------------------------------------|
D|-------------------------------------------|
A|-------------------------------------0-3h5-|
D|-0-0-3-0-0-0-0-3-0-0-0-0-3-0-0-0-3h5-------|
                                                  (x3)
                                      PM------
e|--------------------------------------------|
B|--------------------------------------------|
G|--------------------------------------------|
D|--------------------------------------------|
A|------------------------------------3-------|
D|-0-0-3-0-0-0-0-3-0-0-0-0-3-0-0-3h5----7-5-3-|

e|-------------------------------------------|
B|-------------------------------------------|
G|-------------------------------------------|
D|-------------------------------------------|
A|-------------------------------------0-3h5-|
D|-0-0-3-0-0-0-0-3-0-0-0-0-3-0-0-0-3h5-------|

e|-------------------------------------------|
B|-------------------------------------------|
G|-------------------------------------------|
D|-------------------------------------------|
A|---------------------0-3-0-3-0-5-3-0-2-3-3-|
D|-0-0-3-0-0-0-0-3-0-0-0-3-0-3-0-5-3-0-2-3-3-|

Get on the ride, get ready to fly 
Let's jump in the danger zone 
I'm gonna race you 
gotta make sure I will never land 
I wanna rush you, I wanna touch you 
So what the hell am I waiting for

[Chorus]
e|-------------------------------------------------|
B|-------------------------------------------------|
G|-------------------------------------------------|
D|-2-2-2-2-2-2-5-5-5-5-5-5-------------------------|
A|-0-0-0-0-0-0-3-3-3-3-3-3-3-3-3-3-3-3-5-5-5-5-5-5-|
D|-------------------------3-3-3-3-3-3-5-5-5-5-5-5-|
                                                           (x3)
e|-------------------------------------------------------|
B|-------------------------------------------------------|
G|-------------------------------------------------------|
D|-2-2-2-2-2-2-5-5-5-5-5-5-------------------------------|
A|-0-0-0-0-0-0-3-3-3-3-3-3-3-3-3-3-3-3-5-5-5-7-5-0-3-5-5-|
D|-------------------------3-3-3-3-3-3-5-5-5-7-5-0-3-5-5-|

e|-------------------------------------------------|
B|-------------------------------------------------|
G|-------------------------------------------------|
D|-2-2-2-2-2-2-5-5-5-5-5-5-------------------------|
A|-0-0-0-0-0-0-3-3-3-3-3-3-3-3-3-3-3-3-5-5-5-5-5-5-|
D|-------------------------3-3-3-3-3-3-5-5-5-5-5-5-|

e|-------------------------------------------------------------|
B|-------------------------------------------------------------|
G|-------------------------------------------------------------|
D|-2-2-2-2-2-2-5-5-5-5-5-5-------------------------------------|
A|-0-0-0-0-0-0-3-3-3-3-3-3-3-3-3-3-3-3-5-5-5-5-5-5-5-5-5-5-5-5-|
D|-------------------------3-3-3-3-3-3-5-5-5-5-5-5-5-5-5-5-5-5-|

Raise your hands up high 
Let me hear you fly 
As I chase through dirt in a pitch-black sky 
Imagination flow as revolution grow 
Am I strong enough to win only 
God will know 
(Raise your hands up high, oh yeah) 
So baby hold on tight 
You know it feels so right 
Now get ready for a hell of a ride

[Instrumental]
e|-------------------------------------------|
B|-------------------------------------------|
G|-------------------------------------------|
D|-------------------------------------------|
A|-------------------------------------0-3h5-|
D|-0-0-3-0-0-0-0-3-0-0-0-0-3-0-0-0-3h5-------|

e|-----------------------------------------|
B|-----------------------------------------|
G|-----------------------------------------|
D|-----------------------------------------|
A|---------------1\0-0-3-0-3-0-5-3-0-2-3-3-|
D|-0-0-3-0-0-0---1\0-0-3-0-3-0-5-3-0-2-3-3-|

[Verse 2]
e|-------------------------------------------|
B|-------------------------------------------|
G|-------------------------------------------|
D|-------------------------------------------|
A|-------------------------------------0-3h5-|
D|-0-0-3-0-0-0-0-3-0-0-0-0-3-0-0-0-3h5-------|
                                                  (x3)
                                        PM----
e|--------------------------------------------|
B|--------------------------------------------|
G|--------------------------------------------|
D|--------------------------------------------|
A|-----------------------------------3--------|
D|-0-0-3-0-0-0-0-3-0-0-0-0-3-0-0-3h5----7-5-3-|

e|-------------------------------------------|
B|-------------------------------------------|
G|-------------------------------------------|
D|-------------------------------------------|
A|-------------------------------------0-3h5-|
D|-0-0-3-0-0-0-0-3-0-0-0-0-3-0-0-0-3h5-------|

e|-------------------------------------------|
B|-------------------------------------------|
G|-------------------------------------------|
D|-------------------------------------------|
A|---------------------0-3-0-3-0-5-3-0-2-3-3-|
D|-0-0-3-0-0-0-0-3-0-0-0-3-0-3-0-5-3-0-2-3-3-|

(Additional Lead)
e|----15-13b-|
B|-13--------|
G|-----------|
D|-----------|
A|-----------|
D|-----------|

I am the tide I'm ready to dive 
down into a pool of rage 
Breaking the waves 
I'm like a hard-hitting hurricane 
I wanna rush you, I wanna touch you 
So what the hell am I waiting for

[Chorus]
e|-------------------------------------------------|
B|-------------------------------------------------|
G|-------------------------------------------------|
D|-2-2-2-2-2-2-5-5-5-5-5-5-------------------------|
A|-0-0-0-0-0-0-3-3-3-3-3-3-3-3-3-3-3-3-5-5-5-5-5-5-|
D|-------------------------3-3-3-3-3-3-5-5-5-5-5-5-|
                                                           (x3)
e|-------------------------------------------------------|
B|-------------------------------------------------------|
G|-------------------------------------------------------|
D|-2-2-2-2-2-2-5-5-5-5-5-5-------------------------------|
A|-0-0-0-0-0-0-3-3-3-3-3-3-3-3-3-3-3-3-5-5-5-7-5-0-3-5-5-|
D|-------------------------3-3-3-3-3-3-5-5-5-7-5-0-3-5-5-|

e|-------------------------------------------------|
B|-------------------------------------------------|
G|-------------------------------------------------|
D|-2-2-2-2-2-2-5-5-5-5-5-5-------------------------|
A|-0-0-0-0-0-0-3-3-3-3-3-3-3-3-3-3-3-3-5-5-5-5-5-5-|
D|-------------------------3-3-3-3-3-3-5-5-5-5-5-5-|

e|-------------------------------------------------------------|
B|-------------------------------------------------------------|
G|-------------------------------------------------------------|
D|-2-2-2-2-2-2-5-5-5-5-5-5-------------------------------------|
A|-0-0-0-0-0-0-3-3-3-3-3-3-3-3-3-3-3-3-5-5-5-5-5-5-5-5-5-5-5-5-|
D|-------------------------3-3-3-3-3-3-5-5-5-5-5-5-5-5-5-5-5-5-|

[Solo]
e|-13b---13-------------13-11----------11b-|-------------14----------14----------16b-|
B|------------13-16-13--------13p11h13-----|-------12-14----14-12-14----14-12-14-----|
G|-----------------------------------------|-11-13-----------------------------------|
D|-----------------------------------------|-----------------------------------------|
A|-----------------------------------------|-----------------------------------------|
D|-----------------------------------------|-----------------------------------------|

N                            --------------
e|---6-6----------------------------------------|
B|-8-----8-------------------11-11-11-11-11-----|
G|------------------8-10-10b-----------------12-|
D|----------------------------------------------|
A|---------10-9-8-6-----------------------------|
D|----------------------------------------------|

e|-------------|
B|-------------|
G|-------------|
D|-------------|
A|-0-2-3-0-2-3-|
D|-0-2-3-0-2-3-|

[Chorus]
e|-------------------------------------------------|
B|-------------------------------------------------|
G|-------------------------------------------------|
D|-2-2-2-2-2-2-5-5-5-5-5-5-------------------------|
A|-0-0-0-0-0-0-3-3-3-3-3-3-3-3-3-3-3-3-5-5-5-5-5-5-|
D|-------------------------3-3-3-3-3-3-5-5-5-5-5-5-|
                                                           (x3)
e|-------------------------------------------------------|
B|-------------------------------------------------------|
G|-------------------------------------------------------|
D|-2-2-2-2-2-2-5-5-5-5-5-5-------------------------------|
A|-0-0-0-0-0-0-3-3-3-3-3-3-3-3-3-3-3-3-5-5-5-7-5-0-3-5-5-|
D|-------------------------3-3-3-3-3-3-5-5-5-7-5-0-3-5-5-|

e|-------------------------------------------------|
B|-------------------------------------------------|
G|-------------------------------------------------|
D|-2-2-2-2-2-2-5-5-5-5-5-5-------------------------|
A|-0-0-0-0-0-0-3-3-3-3-3-3-3-3-3-3-3-3-5-5-5-5-5-5-|
D|-------------------------3-3-3-3-3-3-5-5-5-5-5-5-|

e|-------------------------------------------------------------|
B|-------------------------------------------------------------|
G|-------------------------------------------------------------|
D|-2-2-2-2-2-2-5-5-5-5-5-5-------------------------------------|
A|-0-0-0-0-0-0-3-3-3-3-3-3-3-3-3-3-3-3-5-5-5-5-5-5-5-5-5-5-5-5-|
D|-------------------------3-3-3-3-3-3-5-5-5-5-5-5-5-5-5-5-5-5-|

[Outro]
(Additional Lead)
e|-------------------------------|
B|-------------------------------|
G|-------------------------------|
D|-7pb-7-7-7-7-7-7-7-5-7-5-------|
A|-------------------------5-5\0-|
D|-------------------------------|

e|-------------------------------------------|
B|-------------------------------------------|
G|-------------------------------------------|
D|-------------------------------------------|
A|-------------------------------------0-3h5-|
D|-0-0-3-0-0-0-0-3-0-0-0-0-3-0-0-0-3h5-------|

                                      PM------
e|--------------------------------------------|
B|--------------------------------------------|
G|--------------------------------------------|
D|--------------------------------------------|
A|------------------------------------3-------|
D|-0-0-3-0-0-0-0-3-0-0-0-0-3-0-0-3h5----7-5-3-|

e|-------------------------------------------|
B|-------------------------------------------|
G|-------------------------------------------|
D|-------------------------------------------|
A|-------------------------------------0-3h5-|
D|-0-0-3-0-0-0-0-3-0-0-0-0-3-0-0-0-3h5-------|
                              
e|-----------------------|
B|-----------------------|
G|-----------------------|
D|-----------------------|
A|-----------------------|
D|-0-0-3-0-0-0-0-3-0-0-0-|

(Raise your hands up high)
(Oh oh, oh oh, oh oh)



************************************

| h   Hammer-on
| \   Slide down
| b   Bend
| p   Pull-off
| pb  Pre-bend
| X   Dead note   
| N   Tremolo
| PM  Palm-Muting

************************************

            
            
Suggest correction
Creating personal tab
Creating personal tab
You can edit any tab online and save it as your Personal.

You can edit, replace or remove any tab part or add personal notes – all changes will be seen only by you.

Personal tabs can be accessed anytime from any device, even offline.
Learn more »
Give kudos to tab author, rate the tab!
1 2 3 4 5
comments
print report bad tab
guest
You may want to rate the tab now too:
select rating
Wanna post a correction for this tab? Suggest correction