Oops, an error
Loading. Please wait.

As Long As The Raven Flies Tab

version 1
version 1

Whole song

Interactive

2,708 views 3 this week
1 commentread comment
1 2 3 4 5
worth learning
x 1
add to favorites
launch autoscroll
font size
0
reset
how to read this tab
guitar tuner
Tab Pro tools
  • play this tab
  • loop segment
  • change instrument
  • show fretboard
  • metronome
Autoscroll
slow
fast
+/-
esc
set tempo
stop
                     Amon Amarth - AS LONG AS THE RAVEN FLIES 
                     From the Album - THE CRUSHER
                     Version 2.0 - Oct 2001

Transcribed by: TerminalX

For Questions, Comments, Newest Version, or Corrections contact
 Phil: at terminaix@aol.com



 .  - palm mute          /  - slide up to
 \  - slide down to      ~  - vibrato
 h  - hammer on          b  - bend
 p  - pull off            Suffixes for bend
                          ph - pinch harmonic
                           f - full bend    h - half bend
*  - see comment           r - release      t - tap bend
X  - DONT PLAY             ~ - vibrato bend
@  - slight palm mute     () - Hold note until next note
                          []: - let note ring over/under others 
                            :: - denotes length         
 " - Tremolo until next note
 ' - Slower Tremolo until next note

*NOTE: not complete

Riff A

|-----------------------------------------|
|-----------------------------------------|
|-----------------------------------------|
|-------------------------12-10-10-9"-----|
|------10-9------10-9---------------------|
|--[0]:::::::[0]:::::::[0]::::::::::::----|

At end of Riff A

|--------------------------------------------------------|
|--------------------------------------------------------|
|--------------------------------------------------------|
|----5-4-4-4----5-4-4-4----------------------------------|
|--3-----------------------10-9---9---9---10-9---9---9---|
|-------------5----------7------7---7---7------7---7-----| 

Then loop back to Beginning of Riff A

Riff B

|------------------------------------------------------------
|------------------------------------------------------------
|---12"---12"---------12"----12"--------14"----14"-----------
|-9"----9"----9"--10"----10"----10"--12"----12"----12"-------
|------------------------------------------------------------
|------------------------------------------------------------

Riff B cont...

 ----------------------|
 ----------------------|
 -----12"---12"--------|
 -10"----10"----10"----|
 ----------------------|
 ----------------------|


Back to Riff A

Guitar 1
|--------------------------------|
|--------------------------------|
|--------------------------------|
|--------------------------------|
|--22-X-22-X-22-X-22-X-2-2-5-4---|
|--00-X-00-X-00-X-00-X-0-0-3-2---|

Guitar 2

|------------------------------------------------------------
|-------8-------------8-------8----------12------------------
|---9-9---9-9-X-9-9-9---9-9-9---9--11-11----11-11-X-11-11-11-
|------------------------------------------------------------
|------------------------------------------------------------
|------------------------------------------------------------

Cont...
 ----------------------------|
 ------12--------------8-----|
 ---11-----11-11-11-11---11--|
 ----------------------------|
 ----------------------------|
 ----------------------------|

Then loop til fade
comments
We did not receive enough feedback on this tab! Please rate:
print report bad tab
1 2 3 4 5
1 comment total.
0 reply
Deathmeter wrote on May 6 2015, 01:32 pm


e|---------------------------------|
B|---------------------------------|
G|---------------------------------|
D|-----5-4---4---4-5---------------|
A|--3------3---3-------------------|
E|---------------------------------|

e|---------------------------------|
B|---------------------------------|
G|---------------------------------|
D|-------5-4----4---4-5------------|
A|---------------------------------|
E|----5------5----5----------------|

e|---------------------------------|
B|---------------------------------|
G|---------------------------------|
D|---------------------------------|
A|---10-9----9----9-10-------------|(x2)
E|-7------7----7-------------------|

I think this sounds a little better

I want to post or [tab]
guest
You may want to rate the tab now too:
select rating
Please do not post tabs as comments. Select "correction" instead!