Oops, an error
Loading. Please wait.

Asator Bass Tab

version 1
version 1

Whole song

Interactive

3,508 views 1 this week
no commentswrite comment
1 2 3 4 5
please rate
add to favorites
launch autoscroll
font size
0
reset
guitar tuner
Autoscroll
slow
fast
+/-
esc
set tempo
stop
Help us to improve Ultimate-Guitar.com Take our survey!
×
Author
Difficulty
intermediate
Tuning: 5-String Standard
high to low (G, D, A, E, B)


|--------------------------------------------------|
|--------------------------------------------------|
|--------------------------------------------------|
|------7-6-------0-00000-00007766-0-00006----------|
|----------0--3---------------------------00003333-|

|---------------------------------------------------------------------|
|---------------------------------------------------------------------|
|---------------------------------------------------------------------|
|-0-00000-00007766-0-00007766-------0-00000-00007766-0-00006----------|
|----------------------------003333--------------------------00003333-|x3

|-------------------------------------------------------------|
|-------------------------------------------------------------|
|-------------------------------------------------------10--9-|
|-0-00000-00007766-0-00007766-------0-0-0---0--2--3--7--------|
|----------------------------003333-------4-------------------|


|------------------------------------------------------------------|
|------------------------------------------------------------------|
|------------------------------------------------------------------|
|-0000000000000000----------------3333333333333333-----------------|
|-----------------0000000000000000----------------3333333333333333-|x4


|------------------------------------------------------------------|
|------------------------------------------------------------------|
|------------------------------------------------------------------|
|-0-00000-000077660-00006---------0-00000-000077660-00007766-------|
|-------------------------00003333--------------------------003333-|x4


|-----------------------------------------------------------------|
|-----------------------------------------------------------------|
|-----------------------------------------------------------------|
|-----------------------------------------------------------------|
|-0-0-0-1-4-4-3-3-3-1-1-4-3-3-1-1-0-0-0-1-4-4-3-3-3-3-3-3-3-3-3-3-|x4


|------------------------------------------------------|
|------------------------------------------------------|
|------------------------------------------------------|
|-------------------------------------0~---3~----------|
|-----------------------1--0---------------------------|x2


|-----------------------------------------------------------|
|-----------------------------------------------------------|
|-----------------------------------------------------------|
|-------3-2-----------------------------3-2-------0~---3~---|
|-0-0-0-----0-0-0-0-0-0-3-5-0-1-0-0-0-0-----0-0-0-----------|x4


|-----------------------|
|-----------------------|
|-----------------------|
|---------------7-6-----|
|-0~----------------0-3-|


|-----------------------------------------------------------------|
|-----------------------------------------------------------------|
|-----------------------------------------------------------------|
|-0-0-0-0-0-0-0-0-----------------3-3-3-3-3-3-3-3-----------------|
|-----------------0-0-0-0-0-0-0-0-----------------3-3-3-3-3-3-3-3-|x7
Suggest correction
Give kudos to tab author, rate the tab!
1 2 3 4 5
comments
print report bad tab
guest
You may want to rate the tab now too:
select rating
Please do not post tabs as comments. Select "correction" instead!