Oops, an error
Loading. Please wait.

Asator Tab

version 1
version 1

Whole song

Interactive

7,716 views 9 this week
1 commentread comment
1 2 3 4 5
please rate
add to favorites
launch autoscroll
font size
0
reset
how to read this tab
guitar tuner
Tab Pro tools
  • play this tab
  • loop segment
  • change instrument
  • show fretboard
  • metronome
×
Best way to learn
"Asator"
Autoscroll
slow
fast
+/-
esc
set tempo
stop
Contributor
-------------------------------------------------------------------------------
                             Asator - Amon Amarth
-------------------------------------------------------------------------------
Tabbed by:QAAS
Email:hangar666@hotmail.it

Tuning:7th strings guitar

Intro - guitar 1        guitar 1&2
e|---------------------|---------|
b|---------------------|---------|
G|---------------------|---------|
D|---------------------|---------|
A|--7-----7------------|---------|
E|--0-00000-007766-----|--7766---|
B|----------------0-3--|------0--|
p.m.. ..... ....... .

main riff - guitar 1&2 - fast picking
e|------------------------------|--------------------------------|
b|------------------------------|--------------------------------|
G|------------------------------|--------------------------------|
D|------------------------------|--------------------------------|x4
A|--7-----7---------------------|--------------------------------|
E|--0-00000-007766----00007766--|--0-00000-007766----000066------|
B|----------------0-3---------0-|----------------0-3-------00-3--|

pre chorus - fast picking - listen for timing
e|---------------------------|
b|---------------------------|
G|---------------------------|
D|---------------------------|
A|-----------------9--10--9--|
E|---------------------------|
B|--5--4--5--7--8------------|

chorus - guitar 1 - fast picking|end 1       |end 2
e|------------------------------|------------|-------------|
b|------------------------------|------------|-------------|
G|------------------------------|------------|-------------|x2
D|----------------------12-10-9-|-10-12-10-9-|-12-14-15-14-|
A|--7---7---7-10-9----9---------|------------|-------------|
E|----7---7--------10-----------|------------|-------------|
B|------------------------------|------------|-------------|
 |
 | chorus - guitar 2 - fast picking
e|--------------------------------------------|
b|--------------------------------------------|
G|--------------------------------------------|x4
D|--------------------------------------------|
A|--------------------------------------------|
E|--00000000--------33333333333---------------|
B|----------00000000--------------3333333333--|

main riff - guitar 1&2 - fast picking
e|------------------------------|--------------------------------|
b|------------------------------|--------------------------------|
G|------------------------------|--------------------------------|
D|------------------------------|--------------------------------|x4
A|--7-----7---------------------|--------------------------------|
E|--0-00000-007766----00007766--|--0-00000-007766----000066------|
B|----------------0-3---------0-|----------------0-3-------00-3--|

pre bridge - guitar1&2 - fast picking
e|------------------------------------|
b|------------------------------------|
G|------------------------------------|x8
D|------------------------------------|
A|------------------------------------|
E|--00000000--------33333333----------|
B|----------00000000--------33333333--|


bridge - guitar 1 - part 1
e|-----------------------------------------|  |
b|-----------------------------------------|  |
G|-----------------------------------------|  |
D|-----------------------------------------|  |
A|-----------------------------------------|  |
E|----3-2------------------3-2-------------|  |
B|--0-----3--3-5-5-3-3-1-0------3-3-5---8--|  |
 |                                            |x 2
 |bridge - guitar 2 - part 1                  |
e|-----------------------------------------|  |
b|-----------------------------------------|  |
G|-----------------------------------------|  |
D|-----------------------------------------|  |
A|-----------------------------------------|  |
E|--2-let-ring---------3-2----------7---10-|  |
B|--0------------------1-0----------5---8--|  |

bridge - guitar 1&2 - part 2
e|-----------------------------------------------------------------|
b|-----------------------------------------------------------------|
G|-----------------------------------------------------------------|x4
D|-----------------------------------------------------------------|
A|--------5-4---------------------------5-4------------------------|
E|--2-2-2-3-2-2-2-2-2-2-2-3/5x-3x-2-2-2-3-2-2-2-2-7-7-7-7-10101010-|
B|--0-0-0-----0-0-0-0-0-0-3/5x-1x-0-0-0-----0-0-0-5-5-5-5-8-8-8-8--|
p.m.  . .     . . . . . .           . .     . . .

 |  guitar 2 - pre rithm  |guitar2 - rithm under solo - listen for timing
e|-----|        |---------|----------|-----------|-----------|-----------|
b|-----|        |---------|----------|-----------|-----------|-----------|
G|-----|        |---------|----------|-----------|-----------|-----------|
D|-----|let ring|---------|----------|-----------|-----------|-----------|
A|--9--|        |---------|----------|-----------|-----------|-----------|
E|--7--|        |--7766---|--7-------|-----------|--10-------|--5--------|
B|-----|        |------0--|----------|--5--------|-----------|-----------| 

solo - guitar 1
                                    
e|-----------12-14-15-14-12-15-p14-p12-15-p14-p12-15-p14-p12-15-p14-p12-17vb|
b|--12-13-15----------------------------------------------------------------|
G|--------------------------------------------------------------------------|
D|--------------------------------------------------------------------------|
A|--------------------------------------------------------------------------|
E|--------------------------------------------------------------------------|
B|--------------------------------------------------------------------------|
 | 
e|-------------------------------------------------------|
b|--15/17v-17p15-12-13-15-13-12--------------------------|
G|------------------------------11-12-11---11------------|
D|--------------------------------------14----14-12-14v--|
A|-------------------------------------------------------|
E|-------------------------------------------------------|
B|-------------------------------------------------------|
 |
e|--------------------------------------------------------------------------|
b|------------------------------------------------/13-12----15-13-12-/17v\15|
G|--14p12h14p12------------------------------------------14-----------------|
D|--------------14p12h14p12--------------10-9-7-9---------------------------|
A|-------------------------14p12h14p12--------------------------------------|
E|------------------------------------12------------------------------------|
B|--------------------------------------------------------------------------|
 |
e|-----------------------------------------------------------------------------|
b|--12-15p13p12-13p12-13-15p13p12-13p12-13-17p15p13-15p13-15-17p15p13-15p13-15-|
G|-----------------------------------------------------------------------------|
D|-----------------------------------------------------------------------------|
A|-----------------------------------------------------------------------------|
E|-----------------------------------------------------------------------------|
B|-----------------------------------------------------------------------------|
 |
e|--12121212-14141414-15151515-17171717-19v-|
b|------------------------------------------|
G|------------------------------------------|
D|------------------------------------------|
A|------------------------------------------|
E|------------------------------------------|
B|------------------------------------------|
 

 DOWN SLIDE THEN UP SLIDE  

chorus - guitar 1 - fast picking|end 1       |end 2
e|------------------------------|------------|-------------|
b|------------------------------|------------|-------------|
G|------------------------------|------------|-------------|x2
D|----------------------12-10-9-|-10-12-10-9-|-12-14-15-14-|
A|--7---7---7-10-9----9---------|------------|-------------|
E|----7---7--------10-----------|------------|-------------|
B|------------------------------|------------|-------------|
 |
 | chorus - guitar 2 - fast picking
e|--------------------------------------------|
b|--------------------------------------------|
G|--------------------------------------------|x4
D|--------------------------------------------|
A|--------------------------------------------|
E|--00000000--------33333333333---------------|
B|----------00000000--------------3333333333--| 

main riff - guitar 1&2 - fast picking                            
e|------------------------------|--------------------------------|
b|------------------------------|--------------------------------|
G|------------------------------|--------------------------------|
D|------------------------------|--------------------------------|x1
A|--7-----7---------------------|--------------------------------|
E|--0-00000-007766----00007766--|--0-00000-007766----000066------|
B|----------------0-3---------0-|----------------0-3-------00-3--|
 |
 |main riff - guitar 1&2 - fast picking                                
e|------------------------------|----------------------------------|
b|------------------------------|----------------------------------|
G|------------------------------|----------------------------------|
D|------------------------------|----------------------------------|x1
A|--7-----7---------------------|-------------------------8-7-5----|
E|--0-00000-007766----00007766--|--0-00000-007766----0000-6-5-3-7--|
B|----------------0-3---------0-|----------------0-3------------5--|




| /  slide up
| \  slide down
| h  hammer-on
| p  pull-off
| ~  vibrato
| +  harmonic
| x  Mute note
===============================================================================
comments
We did not receive enough feedback on this tab! Please rate:
print report bad tab
1 2 3 4 5
1 comment total.
0 reply
djGentoo wrote on February 15 2009, 11:10 am

First off, Amon Amarth doesn't use 7-strings.
Second, the pre-bridge should be like this:


B-|------------------|------------------|------------------|------------------|
F#|------------------|------------------|------------------|------------------|
D-|------------------|------------------|------------------|------------------|
A-|------------------|------------------|------------------|------------------|
E-|------------------|------------------|------------------|------------------|
B-|-0000001144443333-|-3311114433331111-|-0000001144443333-|-3333333333333333-|

Other than that, excellent tab. *****.

I want to post or [tab]
guest
You may want to rate the tab now too:
select rating
Please do not post tabs as comments. Select "correction" instead!