Oops, an error
Loading. Please wait.

Asator Tab

version 2
version 2

Whole song

Interactive

7,059 views 9 this week
1 commentread comment
1 2 3 4 5
excellent!
x 4
add to favorites
launch autoscroll
font size
0
reset
how to read this tab
guitar tuner
Autoscroll
slow
fast
+/-
esc
set tempo
stop
Help us to improve Ultimate-Guitar.com Take our survey!
×
Author
Intro (0:00-0:02)
E|-------------------------------|
B|-------------------------------|
G|-------------------------------|
D|-------------------------------|
A|7------7-----------------------|
E|000000000000007766----7-6------|
B|------------------5-------0-333|
   ...... ...........

Verse 1 (0:03-0:23) and (0:49-1:09) and (2:50-3:03) 
E|-------------------------------------------------|
B|-------------------------------------------------|
G|-------------------------------------------------|
D|-------------------------------------------------|
A|7------7-----------------------------------------|
E|000000000000007766------7766---------------------|
B|------------------555555----00333----------------|
   ...... ...........

Pre-chorus (0:24-0:26)
E|------------------------------|
B|------------------------------|
G|------------------------------|
D|------------------------------|
A|------------------999101010999|
E|777555777999101010------------|
B|555333555777-8-8-8------------|

Chorus (0:27-0:48) and (2:29-2:49)
E|-------------------------------------------|-----------|---------------|
B|-------------------------------------------|-----------|---------------|
G|-------------------------------------------|-----------|---------------|
D|-----------------------------101010999-----|77799------|777799101010999|
A|77755777------101099------777--------101010|-----101099|---------------|
E|--------888777------101010-----------------|-----------|---------------|
B|-------------------------------------------|-----------|---------------|
 |
E|--------------------------------|
B|--------------------------------|
G|--------------------------------|
D|--------------------------------|
A|--------------------------------|
E|--------------------------------|
B|55555555000000008888888833333333|

Bridge pt 1 (1:10-1:29)
E|---------------------------------------|
B|---------------------------------------|
G|---------------------------------------|
D|---------------------------------------|
A|---------------------------------------|
E|---------------------------------------|
B|000011444333311144333111000111444333333|

Bridge pt 2 (1:30-1:40)
E|-----------------------------------------|
B|-----------------------------------------|
G|-----------------------------------------|
D|-----------------------------------------|
A|-------------------3-2-------------------|
E|---3-2-----0-2-----3-2-3-2-------5---8---|
B|0------3-3-----3-3-1-0-----3-3---5---8---|
 |
E|------------------------|
B|------------------------|
G|------------------------|
D|------------------------|
A|2------3-2--------------|
E|2------3-2------5---8---|
B|0------1-0------5---8---|

Bridge pt 3 (1:41-2:03)
E|-----------------------------------|
B|-----------------------------------|
G|-----------------------------------|
D|---5\4---------------5\4-----------|
A|2--5\4---2--5/7-3-2--5\4-----------|
E|2--3\2---2--5/7-3-2--3\2---55558888|
B|000---0000003/5010000---00055558888|
  ...   ... ..   . . ..   ...

Pre-solo (2:02-2:04)
E|---------------|
B|---------------|
G|---------------|
D|---------------|
A|2--------------|
E|2-----7-6------|
B|0---------0-3--|

Solo (2:05-2:25)
E|------------------------1212121214141414151515151414141412121212-|
B|121212121313131315151515-----------------------------------------|
G|-----------------------------------------------------------------|
D|-----------------------------------------------------------------|
A|-----------------------------------------------------------------|
E|-----------------------------------------------------------------|
B|-----------------------------------------------------------------|

E|15p14p1215p14p1215p14p1215p14p1215b/17\15b/17\15b/17\----------------|
B|------------------------------------------------------12-15b/17-17#\-|
G|---------------------------------------------------------------------|
D|---------------------------------------------------------------------|
A|---------------------------------------------------------------------|
E|---------------------------------------------------------------------|
B|---------------------------------------------------------------------|

E|----------------------------------------------------------------|
B|12-13-15-13-12--------------------------------------------------|
G|---------------11-12-14-12-11-9-8-9p8h9p8h9p8h9p8h9p8h9p8h9p8h9-|
D|----------------------------------------------------------------|
A|----------------------------------------------------------------|
E|----------------------------------------------------------------|
B|----------------------------------------------------------------|

E|7h8p7h8------------------------------------------12-----------------------|
B|-------7h8p7h8------------------------12-15-13-12---15-13-17b/19\-17b/19\-|
G|--------------8h9p8h94h5p4h5-5-4-2-4--------------------------------------|
D|--------------------------------------------------------------------------|
A|--------------------------------------------------------------------------|
E|--------------------------------------------------------------------------|
B|--------------------------------------------------------------------------|

E|--------------------------------------------------------------|
B|12151312121212151312121212151312171513131313171513131313171513|
G|--------------------------------------------------------------|
D|--------------------------------------------------------------|
A|--------------------------------------------------------------|
E|--------------------------------------------------------------|
B|--------------------------------------------------------------|

E|------------------------1717171719--19--|
B|171717171919191920202020----------------|
D|----------------------------------------|
A|----------------------------------------|
E|----------------------------------------|
B|----------------------------------------|
 |
E|--------------------------------|
B|--------------------------------|
G|--------------------------------|
D|--------------------------------|
A|--------------------------------|
E|--------------------------------|
B|55555555000000008888888833333333|

(2:26-2:28)
E|---------------------------|
B|---------------------------|
G|---------------------------|
D|---------------------------|
A|---------------------------|
E|pick scrape\\\\\\\\////////|
B|pick scrape\\\\\\\\////////|
Suggest correction
What's this?
You can suggest a correction to this tab. Community and Mods will review your correction and vote to approve or reject it.
comments
print report bad tab
1 comment total.
0 reply
grapefruit7 176 wrote on April 1 2015, 04:05 pm

gouda tab m80

guest
You may want to rate the tab now too:
select rating
Please do not post tabs as comments. Select "correction" instead!