Oops, an error
Loading. Please wait.

Burning Creation Tab

version 1
version 1

Whole song

Interactive

761 views 3 this week
no commentswrite comment
1 2 3 4 5
3 more votes to show rating
add to favorites
launch autoscroll
font size
0
reset
how to read this tab
guitar tuner
Autoscroll
slow
fast
+/-
esc
set tempo
stop
Help us to improve Ultimate-Guitar.com Take our survey!
×
Amon Amarth - Burning Creation
Tabbed By: Juan Valencia Ocampo
Email: caos-de-fuego@hotmail.com

Tuning: Standard (E A D G B E)

E|---------------------------------------------------------------------||
B|-*-----------------------------------------------------------------*-||
G|---------------------------------------------------------------------||
D|---------------------------------------------------------------------||
A|-*-2-0-0-0-2-0-0-0-2-0-------------0-0-0-2-0-0-0-2-0---------------*-||
E|---0-0-0-0-0-0-0-0-0-0-0-0-2-2-3-5-0-0-0-0-0-0-0-0-0-0-0-2-2-3-5-----||

E|----------------------------------------------------------------------------||
B|-*------------------------------------------------------------------------*-||
G|----------------------------------------------------------------------------||
D|---5-5-5-5-5-4-4-4-5-5-5-4-4-4-4-4-5-5-5-4-4-4-4-4--------------------------||
A|-*-------------------------------------------------5-5-5-5-5-7-7-7-7-7-9--*-||
E|----------------------------------------------------------------------------||


E|----------------------------------------------------------------------------||
B|-*------------------------------------------------------------------------*-||
G|----------------------------------------------------------------------------||
D|---5-5-5-5-5-4-4-4-5-5-5-4-4-4-4-4-5-5-5-4-4-4-4-4--------------------------||
A|-*-------------------------------------------------5-5-5-5-5-7-7-7-7-7-9--*-||
E|----------------------------------------------------------------------------||

E|-------------------------------------------------------------------------------------||
B|-------------------------------------------------------------------------------------||
G|-------------------------------------------------------------------------------------||
D|-----7-7-7-7-6-6-6-6-4-4-4-4-----7-7-7-7-6-6-6-6-4-4-4-4-----7-7-7-7-6-6-6-6-4-4-4-4-||
A|-4-4-------------------------5-5-------------------------2-2-------------------------||
E|-2-2-------------------------3-3-------------------------0-0-------------------------||
   . .                         . .                         . .

E|-------------------------------------------------||
B|-------------------------------------------------||
G|-------------------------------------------------||
D|-6-6-6-6-7-7-7-7-9-9-9-9-10-10-10-10-12-12-12-12-||
A|-------------------------------------------------||
E|-------------------------------------------------||

E|----------------------------------------------------||
B|-*------------------------------------------------*-||
G|----------------------------------------------------||
D|---7--7--7--7--9--9--9--9--6--6--6--6--7--7--7--7---||
A|-*------------------------------------------------*-||
E|----------------------------------------------------||


E|-------------------------------------------------------------------------------------||
B|-------------------------------------------------------------------------------------||
G|-------------------------------------------------------------------------------------||
D|-----7-7-7-7-6-6-6-6-4-4-4-4-----7-7-7-7-6-6-6-6-4-4-4-4-----7-7-7-7-6-6-6-6-4-4-4-4-||
A|-4-4-------------------------5-5-------------------------2-2-------------------------||
E|-2-2-------------------------3-3-------------------------0-0-------------------------||
   . .                         . .                         . .

E|-------------------------------------------------||
B|-------------------------------------------------||
G|-------------------------------------------------||
D|-6-6-6-6-7-7-7-7-9-9-9-9-10-10-10-10-12-12-12-12-||
A|-------------------------------------------------||
E|-------------------------------------------------||


E|----------------------------------------------------------------------------||
B|-*------------------------------------------------------------------------*-||
G|----------------------------------------------------------------------------||
D|---5-5-5-5-5-4-4-4-5-5-5-4-4-4-4-4-5-5-5-4-4-4-4-4--------------------------||
A|-*-------------------------------------------------5-5-5-5-5-7-7-7-7-7-9--*-||
E|----------------------------------------------------------------------------||


E|--------------------------------------------------------------------||
B|-*----------------------------------------------------------------*-||
G|--------------------------------------------------------------------||
D|--------------------------------------------------------------------||
A|-*-4-4-4-4-4-4-4-4-5-5-5-5-5-5-5-5-2-2-2-2-2-2-2-4-4-4-4-4-4-4-4--*-||
E|---2-2-2-2-2-2-2-2-3-3-3-3-3-3-3-3-0-0-0-0-0-0-0-2-2-2-2-2-2-2-2----||
     . . .   . . .   . . .   . . .   . . .   . . .   . . .   . . .

E|-----------------------------------------------------------||
B|-----------------------------------------------------------||
G|-----------------------------------------------------------||
D|-----------------------------------------------------------||
A|----------5-----7-----8-7-8-5---------5-----7-----8-7-8-5--||
E|--0-0-0-0---0-0---0-0---------0-0-0-0---0-0---0-0----------||
Suggest correction
Give kudos to tab author, rate the tab!
1 2 3 4 5
comments
print report bad tab
guest
You may want to rate the tab now too:
select rating
Wanna post a correction for this tab? Suggest correction