Oops, an error
Loading. Please wait.

Cry Of The Blackbirds Bass Tab

version 1
version 1

Whole song

Interactive

8,109 views 3 this week
4 commentsread comments
1 2 3 4 5
worth learning
x 5
add to favorites
launch autoscroll
font size
0
reset
guitar tuner
Tab Pro tools
  • play this tab
  • loop segment
  • change instrument
  • show fretboard
  • metronome
×
Best way to learn
"Cry Of The Blackbirds"
Autoscroll
slow
fast
+/-
esc
set tempo
stop
Song: Cry of the Blackbirds
Tabbed By : Garrett Eugene Rentz
e-mail: jesushomeboy211@hotmail.com
Tuning: standard
EADG


G|---------------------------------------------------------------|
D|---------------------------------------------------------------|
A|--0~----0~--------------0~----0~-------------------------------|
E|------------1~----1~--------------1~----1~---------------------|

G|---------------------------------------------------------------|
D|-------------------------------------2-------------------------|
A|--0--0---0--0--5-7----0--0---0--0--3---------------------------|
E|---------------------------------------------------------------|

G|---------------------------------------------------------------|
D|---------------------------------------------------------------|
A|---------------------------------------------------------------|
E|-1--1----1--1----1-1-----1---1---1-----------------------------|

G|---------------------------------------------------------------|
D|---------------------------------------------------------------|
A|0-0-0-0-0-0-0-0-0-0-0-0-0-0-0-0-0-0-0-0-0-0-0-0-0-0-0-0-0-0-0-0|
E|---------------------------------------------------------------|

G|---------------------------------------------------------------|
D|---------------------------------------------------------------|
A|---------------------------------------------------------------|
E|1-1-1-1-1-1-1-1-1-1-1-1-1-1-1-1-1-1-1-1-1-1-1-1-1-1-1-1-1-1-1-1|

G|---------------------------------------------------------------|
D|---------------------------------------------------------------|
A|-----------0-0-0-0-0-0-0-0-0-0-0-0-0-0-0-0---------------------|
E|1--1--1--1---------------------------------3-3-3-3-3-3-3-3-----|

G|---------------------------------------------------------------|
D|----------------0-0-0-0-0-0-0-0-0-0-0-0-0-0-0-0-3-3-3-3-3-3-3-3|
A|---------------------------------------------------------------|
E|3-3-3-3-3-3-3-3------------------------------------------------|

G|---------------------------------------------------------------|
D|3-3-3-3-3-3-3-3------------------------------------------------|
A|----------------0-0-0-0-0-0-0-0-0-0-0-0-0-0-0-0----------------|
E|------------------------------------------------3-3-3-3-3-3-3-3|

G|---------------------------------------------------------------|
D|----------------0-0-0-0-0-0-0-0-0-0-0-0-0-0-0-0-3-3-3-3-3-3-3-3|
A|---------------------------------------------------------------|
E|3-3-3-3-3-3-3-3------------------------------------------------|

G|---------------------------------------------------------------|
D|3-3-3-3-3-3-3-3------------------------------------------------|
A|----------------0-0-0-0-0-0-0-0-0-0-0-0-0-0-0-0----------------|
E|------------------------------------------------3-3-3-3-3-3-3-3|

G|---------------------------------------------------------------|
D|----------------0-0-0-0-0-0-0-0-0-0-0-0-0-0-0-0-3-3-3-3-3-3-3-3|
A|---------------------------------------------------------------|
E|3-3-3-3-3-3-3-3------------------------------------------------|

G|---------------------------------------------------------------|
D|3-3-3-3-3-3-3-3------------------------------------------------|
A|----------------0-0-0-0-0-0-0-0-0-0-0-0-0-0-0-0----------------|
E|------------------------------------------------3-3-3-3-3-3-3-3|

G|---------------------------------------------------------------|
D|----------------0-0-0-0-0-0-0-0-0-0-0-0-0-0-0-0-3-3-3-3-3-3-3-3|
A|---------------------------------------------------------------|
E|3-3-3-3-3-3-3-3------------------------------------------------|

G|-------------------------------------|-------------------------|
D|3-3-3-3-3-3-3-3----------------------|-------------------------|
A|------------------2--0--2----0--2--0-|--0---0--0---0--0--5-7---|
E|-------------------------------------|-------------------------|

G|---------------------------------------------------------------|
D|----------------2----------------------------------------------|
A|-0--0---0--0--3------------------------------------------------|
E|--------------------1--1---1--1---1-1---1--1---1---------------|

G|---------------------------------------------------------------|
D|---------------------------------------------------------------|
A|--0~-----0~----------------0-0-0-0-0-0-0-0-0-0-0-0-0-0-0-0-----|
E|----------------1~-----1~--------------------------------------|

G|---------------------------------------------------------------|
D|---------------------------------------------------------------|
A|0-0-0-0-0-0-0-0-0-0-0-0-0-0-0-0--------------------------------|
E|--------------------------------1-1-1-1-1-1-1-1-1-1-1-1-1-1-1-1|

G|---------------------------------------------------------------|
D|---------------------------------------------------------------|
A|---------------------------------------------------------------|
E|1-1-1-1-1-1-1-1-1-1-1-1-1-1-1-1--------1----1----1----1--------|

G|---------------------------------------------------------------|
D|---------------------------------------------------------------|
A|0-0-0-0-0-0-0-0-0-0-0-0-0-0-0-0--------------------------------|
E|--------------------------------3-3-3-3-3-3-3-3-3-3-3-3-3-3-3-3|

G|---------------------------------------------------------------|
D|0-0-0-0-0-0-0-0-0-0-0-0-0-0-0-0-3-3-3-3-3-3-3-3-3-3-3-3-3-3-3-3|
A|---------------------------------------------------------------|
E|---------------------------------------------------------------|

G|---------------------------------------------------------------|
D|---------------------------------------------------------------|
A|0-0-0-0-0-0-0-0-0-0-0-0-0-0-0-0--------------------------------|
E|--------------------------------3-3-3-3-3-3-3-3-3-3-3-3-3-3-3-3|

G|---------------------------------------------------------------|
D|0-0-0-0-0-0-0-0-0-0-0-0-0-0-0-0-3-3-3-3-3-3-3-3-3-3-3-3-3-3-3-3|
A|---------------------------------------------------------------|
E|---------------------------------------------------------------|

G|---------------------------------------------------------------|
D|---------------------------------------------------------------|
A|0-0-0-0-0-0-0-0-0-0-0-0-0-0-0-0--------------------------------|
E|--------------------------------3-3-3-3-3-3-3-3-3-3-3-3-3-3-3-3|

G|---------------------------------------------------------------|
D|0-0-0-0-0-0-0-0-0-0-0-0-0-0-0-0-3-3-3-3-3-3-3-3-3-3-3-3-3-3-3-3|
A|---------------------------------------------------------------|
E|---------------------------------------------------------------|

G|---------------------------------------------------------------|
D|---------------------------------------------------------------|
A|0-0-0-0-0-0-0-0-0-0-0-0-0-0-0-0--------------------------------|
E|--------------------------------3-3-3-3-3-3-3-3-3-3-3-3-3-3-3-3|

G|-----------------------------------------------|---------------|
D|0-0-0-0-0-0-0-0-0-0-0-0-0-0-0-0-3-3-3-3-3-3-3-3|---------------|
A|-----------------------------------------------|0---0-----0----|
E|-----------------------------------------------|---------------|
comments
print report bad tab
4 comments total. Showing first comments.
0 reply
Mudvayne_4_Life wrote on February 8 2008, 08:39 pm

Dude, they play in B standard.

0 reply
TheMidasTouch wrote on May 14 2008, 10:41 pm

My bad. Well then tune to B standard and tab it your own self, I did it how it sounded correct and this would probly work on B standard as well. I made this tab before I had a profile.

0 reply
HolyReaper wrote on August 27 2009, 05:59 pm

they play in standard on a 5 string, not b standard on a 4 string, so these tabs will probably still work with the song.

I want to post or [tab]
guest
You may want to rate the tab now too:
select rating
Please do not post tabs as comments. Select "correction" instead!