Oops, an error
Loading. Please wait.

Cry Of The Blackbirds Bass Tab

version 2
version 2

Whole song

Interactive

1,161 views 1 this week
no commentswrite comment
1 2 3 4 5
accurate
x 5
add to favorites
launch autoscroll
font size
0
reset
guitar tuner
Autoscroll
slow
fast
+/-
esc
set tempo
stop
Help us to improve Ultimate-Guitar.com Take our survey!
×
Author
Difficulty
Tab by: 6METAL6BASSIST6

Email: Petergriffinav@gmail.com

Re-tabbed.

G|----------------------------------------------------------------|.
D|----------------------------------------------------------------|.
A|----------------------------------------------------------------|.
E|0---------------------------------------------------------------|.
B|----------------------------------------------------------------|.
                                                                   .
G|----------------------------------------------------------------|.
D|----------------------------------------------------------------|.
A|----------------------------------------------------------------|.
E|0---------------------------------------------------------------|.
B|----------------------------------------------------------------|.
                                                                   . x2
G|----------------------------------------------------------------|.
D|----------------------------------------------------------------|.
A|----------------------------------------------------------------|.
E|----------------------------------------------------------------|.
B|1---------------------------------------------------------------|.
                                                                   .
G|----------------------------------------------------------------|.
D|----------------------------------------------------------------|.
A|----------------------------------------------------------------|.
E|----------------------------------------------------------------|.
B|1---------------------------------------------------------------|.

G|----------------------------------------------------------------|.
D|----------------------------------------------------------------|.
A|----------------------------------------------------------------|.
E|0-----------0-----------0-----------0-----------5---7-----------|.
B|----------------------------------------------------------------|.
                                                                   .
G|----------------------------------------------------------------|.
D|----------------------------------------------------------------|.
A|----------------------------------------------------2-----------|.
E|0-----------0-----------0-----------0-----------3---------------|.
B|----------------------------------------------------------------|.
                                                                   . x2
G|----------------------------------------------------------------|.
D|----------------------------------------------------------------|.
A|----------------------------------------------------------------|.
E|----------------------------------------------------------------|.
B|1-----------1-----------1-----------1-----------1---1-----------|.
                                                                   .
G|----------------------------------------------------------------|.
D|----------------------------------------------------------------|.
A|----------------------------------------------------------------|.
E|----------------------------------------------------------------|.
B|1-----------1-----------1---------------------------------------|.

0:44

G|----------------------------------------------------------------|.
D|----------------------------------------------------------------|.
A|----------------------------------------------------------------|.
E|0---0---0---0---0---0---0---0---0---0---0---0---0---0---0---0---|.
B|----------------------------------------------------------------|.
                                                                   .
G|----------------------------------------------------------------|.
D|----------------------------------------------------------------|.
A|----------------------------------------------------------------|.
E|0---0---0---0---0---0---0---0---0---0---0---0---0---0---0---0---|.
B|----------------------------------------------------------------|.
                                                                   . x2
G|----------------------------------------------------------------|.
D|----------------------------------------------------------------|.
A|----------------------------------------------------------------|.
E|----------------------------------------------------------------|.
B|1---1---1---1---1---1---1---1---1---1---1---1---1---1---1---1---|.
                                                                   .
G|----------------------------------------------------------------|.
D|----------------------------------------------------------------|.
A|----------------------------------------------------------------|.
E|----------------------------------------------------------------|.
B|1---1---1---1---1---1---1---1---1---1---1---1---1---1---1---1---|.

1:07

G|----------------------------------------------------------------|.
D|----------------------------------------------------------------|.
A|----------------------------------------------------------------|.
E|0---0---0---0---0---0---0---0---0---0---0---0---0---0---0---0---|.
B|----------------------------------------------------------------|.
                                                                   .
G|----------------------------------------------------------------|.
D|----------------------------------------------------------------|.
A|----------------------------------------------------------------|.
E|----------------------------------------------------------------|.
B|3---3---3---3---3---3---3---3---3---3---3---3---3---3---3---3---|.
                                                                   . x4
G|----------------------------------------------------------------|.
D|----------------------------------------------------------------|.
A|----------------------------------------------------------------|.
E|5---5---5---5---5---5---5---5---5---5---5---5---5---5---5---5---|.
B|----------------------------------------------------------------|.
                                                                   .
G|----------------------------------------------------------------|.
D|----------------------------------------------------------------|.
A|3---3---3---3---3---3---3---3---3---3---3---3---3---3---3---3---|.
E|----------------------------------------------------------------|.
B|----------------------------------------------------------------|.

G|----------------------------------------------------------------|
D|----------------------------------------------------------------|
A|----------------------------------------------------------------|
E|2-----------0-----------2-----------0-----------2-------0-------|
B|----------------------------------------------------------------|

1:54

G|----------------------------------------------------------------|.
D|----------------------------------------------------------------|.
A|----------------------------------------------------------------|.
E|0-----------0-----------0-----------0-----------5---7-----------|.
B|----------------------------------------------------------------|.
                                                                   .
G|----------------------------------------------------------------|.
D|----------------------------------------------------------------|.
A|----------------------------------------------------2-----------|.
E|0-----------0-----------0-----------0-----------3---------------|.
B|----------------------------------------------------------------|.
                                                                   . x2
G|----------------------------------------------------------------|.
D|----------------------------------------------------------------|.
A|----------------------------------------------------------------|.
E|----------------------------------------------------------------|.
B|1-----------1-----------1-----------1-----------1---1-----------|.
                                                                   .
G|----------------------------------------------------------------|.
D|----------------------------------------------------------------|.
A|----------------------------------------------------------------|.
E|----------------------------------------------------------------|.
B|1-----------1-----------1---------------------------------------|.

G|----------------------------------------------------------------|.
D|----------------------------------------------------------------|.
A|----------------------------------------------------------------|.
E|0---------------------------------------------------------------|.
B|----------------------------------------------------------------|.
                                                                   .
G|----------------------------------------------------------------|.
D|----------------------------------------------------------------|.
A|----------------------------------------------------------------|.
E|0---------------------------------------------------------------|.
B|----------------------------------------------------------------|.
                                                                   . x2
G|----------------------------------------------------------------|.
D|----------------------------------------------------------------|.
A|----------------------------------------------------------------|.
E|----------------------------------------------------------------|.
B|1---------------------------------------------------------------|.
                                                                   .
G|----------------------------------------------------------------|.
D|----------------------------------------------------------------|.
A|----------------------------------------------------------------|.
E|----------------------------------------------------------------|.
B|1---------------------------------------------------------------|.

2:38

G|----------------------------------------------------------------|.
D|----------------------------------------------------------------|.
A|----------------------------------------------------------------|.
E|0---0---0---0---0---0---0---0---0---0---0---0---0---0---0---0---|.
B|----------------------------------------------------------------|.
                                                                   .
G|----------------------------------------------------------------|.
D|----------------------------------------------------------------|.
A|----------------------------------------------------------------|.
E|0---0---0---0---0---0---0---0---0---0---0---0---0---0---0---0---|.
B|----------------------------------------------------------------|.
                                                                   . x2
G|----------------------------------------------------------------|.
D|----------------------------------------------------------------|.
A|----------------------------------------------------------------|.
E|----------------------------------------------------------------|.
B|1---1---1---1---1---1---1---1---1---1---1---1---1---1---1---1---|.
                                                                   .
G|----------------------------------------------------------------|.
D|----------------------------------------------------------------|.
A|----------------------------------------------------------------|.
E|----------------------------------------------------------------|.
B|1---1---1---1---1---1---1---1---1---1---1---1---1---1---1---1---|.

3:00

G|----------------------------------------------------------------|.
D|----------------------------------------------------------------|.
A|----------------------------------------------------------------|.
E|0---0---0---0---0---0---0---0---0---0---0---0---0---0---0---0---|.
B|----------------------------------------------------------------|.
                                                                   .
G|----------------------------------------------------------------|.
D|----------------------------------------------------------------|.
A|----------------------------------------------------------------|.
E|----------------------------------------------------------------|.
B|3---3---3---3---3---3---3---3---3---3---3---3---3---3---3---3---|.
                                                                   . x3
G|----------------------------------------------------------------|.
D|----------------------------------------------------------------|.
A|----------------------------------------------------------------|.
E|5---5---5---5---5---5---5---5---5---5---5---5---5---5---5---5---|.
B|----------------------------------------------------------------|.
                                                                   .
G|----------------------------------------------------------------|.
D|----------------------------------------------------------------|.
A|3---3---3---3---3---3---3---3---3---3---3---3---3---3---3---3---|.
E|----------------------------------------------------------------|.
B|----------------------------------------------------------------|.

G|----------------------------------------------------------------|
D|----------------------------------------------------------------|
A|----------------------------------------------------------------|
E|0---0---0---0---0---0---0---0---0---0---0---0---0---0---0---0---|
B|----------------------------------------------------------------|

G|----------------------------------------------------------------|
D|----------------------------------------------------------------|
A|----------------------------------------------------------------|
E|----------------------------------------------------------------|
B|3---3---3---3---3---3---3---3---3---3---3---3---3---3---3---3---|

G|----------------------------------------------------------------|
D|----------------------------------------------------------------|
A|----------------------------------------------------------------|
E|5---5---5---5---5---5---5---5---5---5---5---5---5---5---5---5---|
B|----------------------------------------------------------------|

G|----------------------------------------------------------------------------------------------------|
D|----------------------------------------------------------------------------------------------------|
A|3---3---3---3---3---3---3---3-------------------------------------------0-----------0-----------0---|
E|----------------------------------------------------------------------------------------------------|
B|----------------------------------------------------------------------------------------------------|
Suggest correction
What's this?
You can suggest a correction to this tab. Community and Mods will review your correction and vote to approve or reject it.
comments
print report bad tab
guest
You may want to rate the tab now too:
select rating
Please do not post tabs as comments. Select "correction" instead!