Oops, an error
Loading. Please wait.

Cry Of The Blackbirds Tab

version 2
version 2

Whole song

Interactive

10,762 views 9 this week
5 commentsread comments
1 2 3 4 5
please rate
add to favorites
launch autoscroll
font size
0
reset
how to read this tab
guitar tuner
Tab Pro tools
  • play this tab
  • loop segment
  • change instrument
  • show fretboard
  • metronome
×
Best way to learn
"Cry Of The Blackbirds"
Autoscroll
slow
fast
+/-
esc
set tempo
stop
Contributor
Difficulty
Tuning
intermediate
B F# B E G# C#
Tuning Low To High (B F# B E G# C#) if you don't have a 7 string like I don't.

T. = Tremolo Picking
/ = Slide
P.M = Palm Mute


Guitar 1                                             (Guitar 1 Intro Riff)
|------------------------------------------------------------------------|
|------------------------------------------------------------------------|
|------------------------------------------------------------------------|
|-8-7-5-7-8---8-7/10-8--15-13-12-13-10----15-13-12-10-8-7----------------|
|------------------------------------------------------------------------|
|------------------------------------------------------------------------|

Guitar 2 (hold notes)                                (Guitar 2 Intro Riff)
|------------------------------------------------------------------------|
|------------------------------------------------------------------------|
|------------------------------------------------------------------------|
|5-----------5---------8-----------------8-------------------------------|
|5-----------5---------8-----------------8-------------------------------|
|5-----------5---------8-----------------8-------------------------------|

Guitar 1
|------------------------------------------------------------------------|
|------------------------------------------------------------------------|
|------------------------------------------------14-15-14-12-14----------|
|-8-7-5-7-8--8-7/10-8-7--15-13-12-13-10--15-13-12------------------------|
|------------------------------------------------------------------------|
|------------------------------------------------------------------------|

Guitar 2(Hold Notes)                                   (End Of Intro Riff)
|------------------------------------------------------------------------|
|------------------------------------------------------------------------|
|------------------------------------------------------------------------|
|5-----------5-----------8--------------8--------------------------------|
|5-----------5-----------8--------------8--------------------------------|
|5-----------5-----------8--------------8--------------------------------|


Guitar 1                                                     (Chorus Riff)
|-----------------------------------|------------------------------------|
|-----------------------------------|------------------------------------|
|-----15----14----12----14----15-14-|-----15----14----12----14----15-14--|
|-0-12--0-12--0-12--0-12--0-12------|0-12---0-12--0-12--0-12--0-12-------|
|-----------------------------------|------------------------------------|
|-----------------------------------|------------------------------------|

Guitar 2
P.M-------------------|          P.M---------------------------------------|
|-----------------------------------|--------------------------------------|
|-----------------------------------|--------------------------------------|
|-----------------------------------|--------------------------------------|
|5----5------5------5-----5-5-------|5-----5-----5------5-----3--1---------|
|5----5------5------5-----5-5-------|5-----5-----5------5-----3--1---------|
|5----5------5------5-----5-5-------|5-----5-----5------5-----3--1---------|

Guitar 1
|------------------------------|-----------------------------------------|
|---10---10---8---10---10-8----|---10---10---8---10---8-7----------------|
|0-8--0-8--0-8-0-8--0-8--------|0-8--0-8--0-8-0-8--0-8-------------------|
|------------------------------|-----------------------------------------|
|------------------------------|-----------------------------------------|
|------------------------------|-----------------------------------------|

Guitar 2
P.M-------------|             P.M---------------------|  (Hold This Note)
|------------------------------|----------------------|
|------------------------------|----------------------|
|------------------------------|----------------------|
|1---1-----1---1-----1-1-------|1----1----1----1---3--|
|1---1-----1---1-----1-1-------|1----1----1----1---3--|
|1---1-----1---1-----1-1-------|1----1----1----1---3--|

Guitar 1&2 Repeat Above Twice Then Guitar 2 Changes Riff To This Twice
(Hold All Notes)                                      (End Of Chorus Riff)
|-------------------------------|----------------------------------------|
|-------------------------------|----------------------------------------|
|-------------------------------|----------------------------------------|
|5------------------------------|1---------------------------------------|
|5------------------------------|1---------------------------------------|
|5------------------------------|1---------------------------------------|

Guitar 1
T.-------------------------------------------------------------------------|(Verse Riff)
|--------------------------------------------------------------------------|
|--------------------------------------------------------------------------|
|--------------------------------------------------------------------------|
|-8-7-5-7-8---8-7/10-8--15-13-12-13-10----15-13-12-10-8-7------------------|
|--------------------------------------------------------------------------|
|--------------------------------------------------------------------------|


[Guitar 2 Plays Intro Riff 4 Times  While Guitar 1 Plays Above 4 Times]

(Fill Leading To Chorus Riff)

Guitar 1
T.----------------------------|
|-----------------------------|
|-----------------------------|
|-----------------------------|
|-7-5-7-8-10------------------|
|-----------------------------|
|-----------------------------|

Guitar 2
P.M---------------------------|
|-----------------------------|
|-----------------------------|
|-----------------------------|
|-7-5-7-8-10------------------|
|-7-5-7-8-10------------------|
|-7-5-7-8-10------------------|

Play Chorus Riff.Then 2nd Part Two Times(There is a stop at the end of the last part of 
riff at the ending part shown below)
Guitar 1
|------------------------------|-----------------------------------------|
|---10---10---8---10---10-8----|---10---10---8---10----------------------|
|0-8--0-8--0-8-0-8--0-8--------|0-8--0-8--0-8-0-8-----(PAUSE)------------|
|------------------------------|-----------------------------------------|
|------------------------------|-----------------------------------------|
|------------------------------|-----------------------------------------|

Guitar 2
P.M-------------|             P.M------------------------------------------|
|------------------------------|-------------------------------------------|
|------------------------------|-------------------------------------------|
|------------------------------|-------------------------------------------|
|1---1-----1---1-----1-1-------|1----1----1----1---(PAUSE)-----------------|
|1---1-----1---1-----1-1-------|1----1----1----1---------------------------|
|1---1-----1---1-----1-1-------|1----1----1----1---------------------------|


Play Verse Riff  Times. The Last One Is Played Below

Guitar 1
T.-------------------------------------------------------------------------|(Verse Riff)
|--------------------------------------------------------------------------|
|--------------------------------------------------------------------------|
|----------------------------------------------------(x)--14-15-14-12-14---|
|-8-7-5-7-8---8-7/10-8--15-13-12-13-10----15-13----------------------------|
|--------------------------------------------------------------------------|
|--------------------------------------------------------------------------|


[Guitar 2 Plays Intro Riff 4 Times  While Guitar 1 Plays Above 4 Times And Stops At The Check Mark (x)]

Both Guitars Play This
P.M----------|
|------------|
|------------|
|------------|
|-5--5--5----|
|-5--5--5----|
|-5--5--5----|

That's the whole song. Practice and you'll be playin it like a pro. If there are any 
contact me at: arch-enemy_666@hotmail.com.
comments
We did not receive enough feedback on this tab! Please rate:
print report bad tab
1 2 3 4 5
5 comments total. Showing first comments.
+1 reply
ChurchNSkate wrote on January 10 2007, 10:31 pm

No...no, Amon Amarth plays in B standard. Tune those other strings down one more full step (albeit the low B) and you're set.

+1 reply
Kreuger wrote on January 24 2007, 12:19 am

Seems like a decent start other than like Church said, they use B Standard

0 reply
live_fan wrote on March 1 2007, 07:15 pm

Yep, definitely B standard. Still a job well done. More *accurate* tabs from this album would be appreciated, or I may just do some myself, as lazy as I am.

I want to post or [tab]
guest
You may want to rate the tab now too:
select rating
Please do not post tabs as comments. Select "correction" instead!