Oops, an error
Loading. Please wait.

Cry Of The Blackbirds Bass Tab

version 3
version 3

Whole song

Interactive

141 views 1 this week
no commentswrite comment
1 2 3 4 5
please rate
add to favorites
launch autoscroll
font size
0
reset
guitar tuner
Autoscroll
slow
fast
+/-
esc
set tempo
stop
Help us to improve Ultimate-Guitar.com Take our survey!
×
Author
Difficulty
intermediate
|-----HOPE-----|
|-----YOU------|
|-----ENJOY----|

Cry of the blackbirds - Amon Amarth!
Here are the tabs for a 4-string bass in standard tuning (EADG):

G|-------------------|
D|-------------------|
A|------------3-----3| x2
E|0-----0------------|

G|----------------------------------------------------------|
D|----------------------------------------------------------|
A|-------------------------------2--3--3--3--3--3-3--3--3--3| x2
E|0--0--0--0--5-7--0--0--0--0--3----------------------------|

G|----------------------------------------------------------------|
D|----------------------------------------------------------------|
A|--------------------------------33333333333333333333333333333333| x2
E|00000000000000000000000000000000--------------------------------|

G|----------------------------------------------------------------|
D|----------------------------------------------------------------|
A|----------------5555555555555555--------------------------------| x4
E|0000000000000000----------------55555555555555558888888888888888|

G|-----------|
D|-----------|
A|-----------| x1
E|2-0-2-3-5-3|

G|----------------------------------------------------------|
D|----------------------------------------------------------|
A|-------------------------------2--3--3--3--3--3-3--3--3--3| x2
E|0--0--0--0--5-7--0--0--0--0--3----------------------------|

G|-------------------|
D|-------------------|
A|------------3-----3| x2
E|0-----0------------|

G|----------------------------------------------------------------|
D|----------------------------------------------------------------|
A|--------------------------------33333333333333333333333333333333| x2
E|00000000000000000000000000000000--------------------------------|

G|----------------------------------------------------------------|
D|----------------------------------------------------------------|
A|----------------5555555555555555--------------------------------|
E|0000000000000000----------------55555555555555558888888888888888|

G|---------------------------------------------------------| G|-------|
D|---------------------------------------------------------| D|-------|
A|----------------5555555555555555-------------------------| A|-------|
E|0000000000000000----------------5555555555555555888888888| E|0--0--0|
Suggest correction
Give kudos to tab author, rate the tab!
1 2 3 4 5
comments
print report bad tab
guest
You may want to rate the tab now too:
select rating
Wanna post a correction for this tab? Suggest correction