Oops, an error
Loading. Please wait.

Cry Of The Blackbirds Tab

version 3
version 3

Whole song

Interactive

30,093 views 9 this week
6 commentsread comments
1 2 3 4 5
accurate
x 10
add to favorites
launch autoscroll
font size
0
reset
how to read this tab
guitar tuner
Tab Pro tools
  • play this tab
  • loop segment
  • change instrument
  • show fretboard
  • metronome
×
Best way to learn
"Cry Of The Blackbirds"
Autoscroll
slow
fast
+/-
esc
set tempo
stop
Contributor
-------------------------------------------------------------------------------
                             SONG NAME - Band Name
-------------------------------------------------------------------------------
Tabbed by:Greg Misiak

Tuning:B Standard

b|-----------------------------------------------------------|
G|-----------------------------------------------------------|
D|---------------------------------12-10-9-10-7--12-10-9-7-5-|
A|---10-9-7-9-10---10-9-12-10-9--0--------------0------------|
E|-0-------------0-------------------------------------------|
B|-----------------------------------------------------------|
 |                                                           |
 |                                                           |
b|-----------------------------------------------------------|
G|-----------------------------------------------------------|
D|-2------------2--------------------------------------------|
A|-2------------2---------------3---------------3------------|
E|-0------------0---------------3---------------3------------|
B|------------------------------1---------------1------------|




b|-----------------------------------------------------------|
G|-----------------------------------------------------------|
D|---------------------------------12-10-9-10-7--12-10-9h10p9|
A|---10-9-7-9-10---10-9-12-10-9--0--------------0------------|
E|-0-------------0-------------------------------------------|
B|-----------------------------------------------------------|
 |                                                           |
 |                                                           |
b|-----------------------------------------------------------|
G|-----------------------------------------------------------|
D|-2------------2--------------------------------------------|
A|-2------------2---------------3---------------3------------|
E|-0------------0---------------3---------------3------------|
B|------------------------------1---------------1------------|



b|-----------------------------------------------------------|
G|-----------------------------------------------------------|
D|----9-10-----17----16----14----16----17--------------------|
A|-12--------14----14----14----14----14--------17------17----|
E|---------12----12----12----12----12--------15------15------|
B|-----------------------------------------13------13--------|
 |                                                           |
 |                                                           |
b|-----------------------------------------------------------|
G|-----------------------------------------------------------|
D|---------2-----2-----2----2-----2--------------------------|
A|---------2-----2-----2----2-----2----------3--------3------|
E|---------0-----0-----0----0-----0----------3--------3------|
B|-------------------------------------------1--------1------|
           .     .     .    .     .          .        .

b|-----------------------------------------------------------|
G|-----------------------------------------------------------|
D|-----------------------------------------------------------|
A|------15-----17-----15-----17-----17-----15----------------|
E|----15-----15-----15-----15-----15-----15------------------|
B|--13-----13-----13-----13-----13-----13--------------------|
 |                                                           |
 |                                                           |
b|-----------------------------------------------------------|
G|-----------------------------------------------------------|
D|-----------------------------------------------------------|
A|-3----------3-----3-------3-------3------3-----------------|
E|-3----------3-----3-------3-------3------3-----------------|
B|-1----------1-----1-------1-------1------1-----------------|
   .          .     .       .       .


b|-----------------------------------------------------------|
G|-----------------------------------------------------------|
D|------------------------------------12"-10"-9"-10"-7"--12"-|
A|-10"-9"-7"-9"-10"--9"-12"--10"-9"-0------------------------|
E|-----------------------------------------------------------|
B|-----------------------------------------------------------|

b|-----------------------------------------------------------|
G|-----------------------------------------------------------|
D|-10"-9"----------------------------------------------------|
A|--------12"-10"--------------------------------------------|
E|-----------------------------------------------------------|
B|-----------------------------------------------------------|
 

Those are all of the riffs.

| /  slide up
| \  slide down
| h  hammer-on
| p  pull-off
| ~  vibrato
| +  harmonic
| x  Mute note
===============================================================================
comments
print report bad tab
6 comments total. Showing first comments.
-2 reply
guitarhead93 wrote on February 25 2008, 04:49 pm

i hate this tuning, id rather use capo on 2nd fret.

nice tab btw.

0 reply
djGentoo wrote on September 9 2008, 03:12 pm

Best one I've seen so far.

0 reply
Metal Arsenic wrote on September 10 2008, 05:05 pm

you should make this a powertab
very nice work

I want to post or [tab]
guest
You may want to rate the tab now too:
select rating
Please do not post tabs as comments. Select "correction" instead!