Oops, an error
Loading. Please wait.

Death In Fire Bass Tab

version 1
version 1

Whole song

Interactive

5,747 views 6 this week
2 commentsread comments
1 2 3 4 5
not so good
x 2
add to favorites
launch autoscroll
font size
0
reset
guitar tuner
Tab Pro tools
  • play this tab
  • loop segment
  • change instrument
  • show fretboard
  • metronome
×
Best way to learn
"Death In Fire"
Autoscroll
slow
fast
+/-
esc
set tempo
stop
Contributor
Difficulty
Tuning
intermediate
D A D G B E
Amon Amarth - Death in fire by Niels Kroon

Hello, this is the Amon Amarth - Death in fire bass tab. I was looking for it myself,
I could find it, so I will make one on my own! I hope you enjoy it, and if you see any
mail to saltyniels@hotmail.com!

/= let the note ring

Bass tuned drop - D
The speed is 130, moderate metal.

This is the first few notes you play, that's right before the amazing drumintro, the
counts down 2 strokes on the hi-hat(takes 2 seconds) and then you begin, and then you just
to the intro once, and then you immediatelly know what to play as intro, and after that, 
follow the tab.* the timing is kind of hard if you don't know the song really good,
why I give this little introduction.*

Intro riff:
D||-------------------------------------||
A||-------------------------------------||
D||-------------------------------------||
G||-(0:02)0/--------------(0:09)9-10--7-||

Main riff I:
D||------------------------------------------------------||
A||--7-9---7-9----12-10----10-----9-10-----7-------------||
D||------------------------------------------------------||
G||-0----0-----0--------0------0--------0----------------||

Main riff II:
D||------------------------------------------------------||
A||----7-9---7-9---7---7-9---7-9-9999999910-10-10-10-----||
D||--0-----0-----0---0-----0-----------------------------||
G||------------------------------------------------------||

Second main riff:
D||-----------------------||
A||-----------------------||
D||-----------------------||
G||-00000000000000-9-10-7-||

Under first guitar solo part I(UFGSP I):
D||------------------------------------||
A||------------------------------------||
D||------------------------------------||
G||-77-7---77-7--------33-3---33-3-----||

Under first guitar solo part II(UFGSP II):
D||------------------------------||
A||------------------------------||
D||------------------------------||
G||--77-77-7-77-77-33-33-3-33-33-||

Third main riff( this one I don't know really sure! ):
D||-----------------------------------------------------------------||
A||-----------------------------------------------------------------||
D||-----------------------------------------------------------------||
G||-777777777777777-555555555555555-333333333333333-999999999977777-||

End part:
D||-----------------------------||
A||-99999999-10-10-10-10--------||
D||----------------------9-10-7-||
G||-----------------------------||


The order the song is played is this:

what?            how much times?
Intro riff       1x
Main riff I      2x
Main riff II     2x
Main riff I      2x
Main riff II     2x
Main riff I      2x
Main riff II     2x
Main riff I      2x
Main riff II     2x
Second main Riff 4x
Main riff I      2x
Main riff II     2x
Main riff I      2x
Main riff II     2x
*Everyone will stop playing right now, only the leadguitarist will do a,
leadguitarist kind of solo thing, and then the drum drops in at 1:59,and at 2:00
you drop in with the UnderFirstGuitarSoloPart I!
UFGSP I          2x
UFGSP II         4x
Third main riff  4x
Intro riff       1x
third main riff  2x + the ||--9-10-7--|| part on the Lower D string.
* tip: just listen to the song once, so you will know what to do here!
Main riff I      2x
Main riff II     2x
Main riff I      2x
Main riff II     2x
End part         1x

Hope you enjoy it!
comments
We did not receive enough feedback on this tab! Please rate:
print report bad tab
1 2 3 4 5
2 comments total.
0 reply
Domi166 wrote on December 19 2006, 09:18 am

Drop D is
G|--|
D|--|
A|--|
D|--|

You have written
D|--|
A|--|
D|--|
G|--|

0 reply
Mamuks wrote on September 18 2008, 06:26 pm

Its not Drop D is Low B
This tab is pretty bad, I will post a really accurate one later.

I want to post or [tab]
guest
You may want to rate the tab now too:
select rating
Please do not post tabs as comments. Select "correction" instead!