Oops, an error
Loading. Please wait.

Death In Fire Bass Tab

version 3
version 3

Whole song

Interactive

2,768 views 6 this week
1 commentread comment
1 2 3 4 5
excellent!
x 4
add to favorites
launch autoscroll
font size
0
reset
guitar tuner
Autoscroll
slow
fast
+/-
esc
set tempo
stop
Help us to improve Ultimate-Guitar.com Take our survey!
×
Contributor
Tuning: BEAD
Played in 4/4 time

D|----|                  
A|----|                  
E|----|                  
B|0---|[hold for 14 beats]

D|-------|
A|-------|
E|2-3---0|
B|----0--|

D|----------------|
A|----------------|
E|----------------| x4
B|0000000000000000|

D|----------------|----------------|----------------|---------------|
A|----------------|----------------|----------------|---------------|
E|0-0-0-0-0-0-0-0-|0-0-0-0-0-0-0-0-|----------------|---------------|
B|----------------|----------------|3-3-3-3-3-3-3-3-|1-1-1-1-1-1-1-1|

D|----------------|
A|----------------|
E|----------------| x4
B|0000000000000000|

D|----------------|----------------|----------------|---------------|
A|----------------|----------------|----------------|---------------|
E|0-0-0-0-0-0-0-0-|0-0-0-0-0-0-0-0-|----------------|---------------|
B|----------------|----------------|3-3-3-3-3-3-3-3-|1-1-1-1-1-1-1-1|

D|----------------|
A|----------------|
E|----------------| x4
B|0000000000000000|

D|----------------|----------------|----------------|---------------|
A|----------------|----------------|----------------|---------------|
E|0-0-0-0-0-0-0-0-|0-0-0-0-0-0-0-0-|----------------|---------------|
B|----------------|----------------|3-3-3-3-3-3-3-3-|1-1-1-1-1-1-1-1|

D|----------------|
A|----------------|
E|----------------| x4
B|0000000000000000|

D|----------------|----------------|----------------|---------------|
A|----------------|----------------|----------------|---------------|
E|0-0-0-0-0-0-0-0-|0-0-0-0-0-0-0-0-|----------------|---------------|
B|----------------|----------------|3-3-3-3-3-3-3-3-|1-1-1-1-1-1-1-1|

D|----------------|---------------|
A|----------------|---------------|
E|----------------|--------2-3---2| x4
B|0000000000000000|00000000----0--| [last 2 bars]

D|----------------|
A|----------------|
E|----------------| x4
B|0000000000000000|

D|----------------|----------------|----------------|---------------|
A|----------------|----------------|----------------|---------------|
E|0-0-0-0-0-0-0-0-|0-0-0-0-0-0-0-0-|----------------|---------------|
B|----------------|----------------|3-3-3-3-3-3-3-3-|1-1-1-1-1-1-1-1|

D|----------------|
A|----------------|
E|----------------|x4
B|0000000000000000|

D|----------------|----------------|----------------|---------------|
A|----------------|----------------|----------------|---------------|
E|0-0-0-0-0-0-0-0-|0-0-0-0-0-0-0-0-|----------------|---------------|
B|----------------|----------------|3-3-3-3-3-3-3-3-|1-1-1-1-1-1-1-1|

Rest 4 bars [16 beats]

D|----------------|----------------|---------------|---------------|
A|----------------|----------------|---------------|---------------|
E|0-0-0-0---------|0-0-0-0---------|---------------|---------------|x2
B|----------------|----------------|1-1-1-1--------|1-1-1-1--------|[4 bars]

D|----------------|----------------|----------------|---------------|
A|----------------|----------------|----------------|---------------|
E|0-0-0-0-0-0-0-0-|0-0-0-0-0-0-0-0-|----------------|---------------|x4
B|----------------|----------------|1-1-1-1-1-1-1-1-|1-1-1-1-1-1-1-1|[4 bars]

D|----------------|----------------|----------------|---------------|
A|----------------|----------------|----------------|---------------|
E|----------------|----------------|----------------|---------------|
B|0000000000000000|0000000000000000|1111111111111111|111111111111111| 
                                                                        
D|----------------|----------------|----------------|----------------|  
A|----------------|----------------|----------------|----------------| x4 
E|----------------|----------------|----------------|----------------|[last 
B|3333333333333333|3333333333333333|0000000000000000|0000000033333333|8bars]

D|----|                  
A|----|                  
E|----|                  
B|0---|[hold for 14 beats]

D|-------|
A|-------|
E|2-3---0|
B|----0--|

D|----------------|----------------|----------------|----------------|
A|----------------|----------------|----------------|----------------|
E|----------------|2222333355553333|2222222222222222|22222222--------|
B|0000000000000000|----------------|----------------|--------33330000|

D|----------------|----------------|----------------|----------------|
A|----------------|----------------|----------------|----------------|x2
E|----------------|2222333355553333|2222222222222222|2222222200000000| [4
B|0000000000000000|----------------|----------------|----------------| bars]

D|----------------|----------------|----------------|----------------|
A|----------------|----------------|----------------|----------------|
E|----------------|2222333355553333|3333333333333333|333333332-3---2-|
B|0000000000000000|----------------|----------------|------------0---|

D|----------------|
A|----------------|
E|----------------|x4
B|0000000000000000|

D|----------------|----------------|----------------|---------------|
A|----------------|----------------|----------------|---------------|
E|0-0-0-0-0-0-0-0-|0-0-0-0-0-0-0-0-|----------------|---------------|
B|----------------|----------------|3-3-3-3-3-3-3-3-|1-1-1-1-1-1-1-1|

D|----------------|
A|----------------|
E|----------------| x4
B|0000000000000000|

D|----------------|----------------|----------------|---------------|
A|----------------|----------------|----------------|---------------|
E|0-0-0-0-0-0-0-0-|0-0-0-0-0-0-0-0-|----------------|---------------|
B|----------------|----------------|3-3-3-3-3-3-3-3-|1-1-1-1-1-1-1-1|

D|----------------|---------------|
A|----------------|---------------|
E|----------------|--------2-3---0|
B|3-3-3-3-3-3-3-3-|1-1-1-1-----0--|
comments
print report bad tab
1 comment total.
0 reply
Alkuin 29 wrote on September 23 2015, 12:04 pm

just a small point which is obvious when playing but wrongly written here - the part which starts around 2:42 of the song starts with E instead of B (and goes on to C - D - B) -- so jsut the zeroes in the wrong line ;)
otherwise great tab

I want to post or [tab]
guest
You may want to rate the tab now too:
select rating
Please do not post tabs as comments. Select "correction" instead!