Oops, an error
Loading. Please wait.

Death In Fire Bass Tab

version 4
version 4

Whole song

Interactive

435 views 1 this week
no commentswrite comment
1 2 3 4 5
please rate
add to favorites
launch autoscroll
font size
0
reset
guitar tuner
Autoscroll
slow
fast
+/-
esc
set tempo
stop
Help us to improve Ultimate-Guitar.com Take our survey!
×
Author
Difficulty
Tuning
advanced
B E A D F# B
hey this is the right bass for death in fire on a five string if you only have a four 
string the tuning is B E A D
5 string tuning B E A D G

intro
G---------------------------------------------------------------------------|
D---------------------------------------------------------------------------|
A---------------------------------------------------------------------------|
E-----23-2------------------------------------------------------------------|
B-0-----0-------------------------------------------------------------------|
2x
G---------------------------------------------------------------------------|
D---------------------------------------------------------------------------|
A---------------------------------------------------------------------------|
E---------------------------------0000000000000-----------------------------|
B-03503508606056000350350860605600-------------333333311111111--------------|
4x
G---------------------------------------------------------------------------|
D---------------------------------------------------------------------------|
A---------------------------------------------------------------------------|
E--------------------23-2---------------------------------------------------|
B-0000000000000000000--0----------------------------------------------------|

2x
G---------------------------------------------------------------------------|
D---------------------------------------------------------------------------|
A---------------------------------------------------------------------------|
E---------------------------------0000000000000-----------------------------|
B-03503508606056000350350860605600-------------3333333111111110-------------|

break for guitar thingy then jump in youll get it

G----------------------|
D ---------------------|
A----------------------|
E-00-0-00-0------------|
B-----------11-1-11-1--| do this 2x then he say yeah and you do
4x
G---------------------------------------------------------------------------|
D---------------------------------------------------------------------------|
A---------------------------------------------------------------------------|
E0000000000000000-----------------------------------------------------------|
B----------------1111111111111111-------------------------------------------|
3x
G---------------------------------------------------------------------------|
D---------------------------------------------------------------------------|
A---------------------------------------------------------------------------|
E00000000000000000000-------------------------------------------------------|
B--------------------111111111111111333333333333330000000000000003333-------|

G---------------------------------------------------------------------------|
D---------------------------------------------------------------------------|
A---------------------------------------------------------------------------|
E--------23-2---------------------------------------------------------------|
B-0--------0----------------------------------------------------------------|

G-----------------------------------------            -----|
D-----------------------------------------            -----|
A-----------------------------------------4x          -----|
E---------3344444455554444444444333331111-  last time 23-2-|
B000000000--------------------------------            --0--|

1x
G---------------------------------------------------------------------------|
D---------------------------------------------------------------------------|
A---------------------------------------------------------------------------|
E---------------------------------0000000000000-----------------------------|
B-03503508606056000350350860605600-------------333333311111111--------------|

outro
G----------------------------------------------------------------------------|
D----------------------------------------------------------------------------|
A----------------------------------------------------------------------------|
E---------------------------------0000000000000-------------------------23-2-|
B-03503508606056000350350860605600-------------3333333111111110000001111--0--|
Suggest correction
What's this?
You can suggest a correction to this tab. Community and Mods will review your correction and vote to approve or reject it.
comments
We did not receive enough feedback on this tab! Please rate:
print report bad tab
1 2 3 4 5
guest
You may want to rate the tab now too:
select rating
Please do not post tabs as comments. Select "correction" instead!